Chord Dewa 19 - Sedang Ingin Bercinta (Tab)
Artis : Dewa 19
Difficulty: Novice | Version: 1
Capo : No Capo
Tranpose
Standard Tuning (e,B,G,D,A,E)

Intro / Verse:

e:|----------------------------------------------------------------------3----------------|
B:|-------3-----3-2------------0-----3-2------------2-----3-2----------2----2-------------|
G:|-----4-----------4-2------------------4-2------2-----------4-2----3--------3--------3--|
D:|---4-------4--------------2------------------2-------2----------0-----------------4----|
A:|-2-------2--------------2-------2----------0-------0----------------------------4------|
E:|----------------------0-------0-----------------------------------------------2--------|


Chorus:

    Bm    Em     A    D

e:|-2-2---------------2--------|
B:|-3-3---------2-2---3--------|
G:|-4-4---------2-2---2--------|
D:|-4-4---2-2---2-2---0--------|
A:|-2-2---2-2---0-0------------|
E:|-------0-0------------------|

Chord & Lirik lagu Dewa 19 – Sedang Ingin Bercinta (Tab) di atas adalah hak cipta / hak milik dari pengarang, artis, band dan label musik yg bersangkutan. Seluruh media termasuk lirik lagu ataupun kunci gitar / Chord Gitar yang terdapat di situs ini hanyalah untuk keperluan promosi dan evaluasi.

Video Not Available