Chord NOAH - Taman Langit (Bass)
Artis : NOAH
Difficulty: Novice | Version: 1
Capo : No Capo
Tranpose
G|-----------------------------------------------------------------|
D|------5---5-7----4h------4-5-7-5-4-----5---5-7-----7~9-7-5-------|
A|--5~7---7-----7--------------------5-7---7-----7-----------7-5-7-|
E|-------------------------------------------------7---------------|


G|-----------------------------------------------------------------|
D|-5---5-7----4h------4-5-7-5-4-----5---5-7-----7~9-7-5------------|
A|---7-----7--------------------5-7---7-----7-----------7-5-7------|
E|-------------------------------------------------7---------------|

Chord & Lirik lagu NOAH – Taman Langit (Bass) di atas adalah hak cipta / hak milik dari pengarang, artis, band dan label musik yg bersangkutan. Seluruh media termasuk lirik lagu ataupun kunci gitar / Chord Gitar yang terdapat di situs ini hanyalah untuk keperluan promosi dan evaluasi.

Video Not Available