Chord Sheila On 7 - Buat Aku Tersenyum (Bass)
Difficulty: Novice | Version: 1
Capo : No Capo
Tranpose
Intro:(bass start (0:10)
G-------------------------------------------------------
D-------------------------------------------------------  (2x)
A-------------------------------------------------------
E-3-3-3-3-3--0-0-0-0-0----------------------------------
 
Verse:
G-------------------------------------------------------
D-----------------------0-0-0-0-0--0-0-0-0-0------------   (3x)
A-------------------------------------------------------
E-3-3-3-3-3--0-0-0-0-0----------------------------------
 
Chorus:
G-------------------------------------------------------
D----------------------------------0-0-0-0-0------------  (1x)
A-3-3-3-3-3--2-2-2-2-2----------------------------------
E-----------------------0-0-0-0-0-----------------------
 
Chorus:
G-------------------------------------------------------
D----------------------------------0-0-0-0-0--0-0-0-0-0-  (1x)
A-3-3-3-3-3--2-2-2-2-2----------------------------------
E-----------------------0-0-0-0-0-----------------------
 
Verse:(1:05)
G-------------------------------------------------------
D-----------------------0-0-0-0-0--0-0-0-0-0------------   (3x)
A-------------------------------------------------------
E-3-3-3-3-3--0-0-0-0-0----------------------------------
 
Chorus
G-------------------------------------------------------
D----------------------------------0-0-0-0-0------------  (1x)
A-3-3-3-3-3--2-2-2-2-2----------------------------------
E-----------------------0-0-0-0-0-----------------------
 
Chorus:
G-------------------------------------------------------
D----------------------------------0-0-0-0-0--0-0-0-0-0-  (1x)
A-3-3-3-3-3--2-2-2-2-2----------------------------------
E-----------------------0-0-0-0-0-----------------------
 
Bridge:
G-------------------------------------------------------
D-------------------------------------------------------   (1x)
A-3-3-3-3-3--2-2-2-2-2--0-0-0-0-0--0-0-0-0-0------------
E-------------------------------------------------------
 
After Bridge:(2:00)
G------------------------------------------------------
D------------------------------------------------------    (1x)
A-3-3-3-3-3--2-2-2-2-2--5-5-5-5-5--5-5-5-5-5-----------
E------------------------------------------------------
 
Chorus:
G-----------------------------------------------------
D----------------------------------0-0-0-0-0----------  (1x)
A-3-3-3-3-3--2-2-2-2-2--------------------------------
E-----------------------0-0-0-0-0---------------------
 
Chorus:
G--------------------------------------------------------
D----------------------------------0-0-0-0-0--0-0-0-0-0--  (1x)
A-3-3-3-3-3--2-2-2-2-2-----------------------------------
E-----------------------0-0-0-0-0------------------------
 
Chorus:
G-----------------------------------------------------
D----------------------------------0-0-0-0-0----------  (1x)
A-3-3-3-3-3--2-2-2-2-2--------------------------------
E-----------------------0-0-0-0-0---------------------
 
Chorus:
G--------------------------------------------------------
D----------------------------------0-0-0-0-0--0-0-0-0-0--  (1x)
A-3-3-3-3-3--2-2-2-2-2-----------------------------------
E-----------------------0-0-0-0-0------------------------
 
Outro:
G--------------------------------------------
D--------------------------------------------   (2x)
A--------------------------------------------
E-3-3-3-3-3--0-0-0-0-0-----------------------

Chord & Lirik lagu Sheila On 7 – Buat Aku Tersenyum (Bass) di atas adalah hak cipta / hak milik dari pengarang, artis, band dan label musik yg bersangkutan. Seluruh media termasuk lirik lagu ataupun kunci gitar / Chord Gitar yang terdapat di situs ini hanyalah untuk keperluan promosi dan evaluasi.

Video Not Available