Chord Ungu - Saat Indah Bersamamu (Tab)
Artis : Ungu
Difficulty: Novice | Version: 1
Capo : No Capo
Tranpose
[int Tab]
 
 E|----------------------------------------------------------------------12/14----|
 B|-------15-14-15-12----15-14-15--15-14-15-15/17-15~14-15--14~15-15/17--------15-|
 G|--9/11-------------------------------------------------------------------------|
 D|-------------------------------------------------------------------------------|
 A|-------------------------------------------------------------------------------|
 E|-------------------------------------------------------------------------------| 
 
 
 E|----------------------------------------------------------15-------15----------|
 B|-----15-------------15--14-12----------14-----------14-------14-------14----14-|
 G|-12--12---11--12/14-----------14-14/16----14--12/14----14-------14-------14----|
 D|-------------------------------------------------------------------------------|
 A|-------------------------------------------------------------------------------|
 E|-------------------------------------------------------------------------------| 
 
 
 E|------------12----14----12--------10----10-------------------------------------|
 B|------15----------------------15--10----10-10/12--10-10/12-\10-----------------|
 G|-9/11----11----11----11----11--------11-11---------9--9/11-\9--9-7-7/9-7-------|
 D|-------------------------------------------------------------------------9-----|
 A|-------------------------------------------------------------------------------|
 E|-------------------------------------------------------------------------------| 
 
 
 E|---------10-10---------------------------------------9-10-9--------------------|
 B|-12--12-------------------------------------------10--------10-----------------|
 G|-11--11--------11\9-9-9/11-9--------------------7--------------9-11-9-11-9-----|
 D|-----------------------------9--8--10--12----------------------------------7---|
 A|-------------------------------------------------------------------------------|
 E|-------------------------------------------------------------------------------| 
 
 
to:[reff]
 
[ending] D...

Chord & Lirik lagu Ungu – Saat Indah Bersamamu (Tab) di atas adalah hak cipta / hak milik dari pengarang, artis, band dan label musik yg bersangkutan. Seluruh media termasuk lirik lagu ataupun kunci gitar / Chord Gitar yang terdapat di situs ini hanyalah untuk keperluan promosi dan evaluasi.

Video Not Available