Chord ADA Band - Karena Wanita Ingin Dimengerti (Tab)
Artis : ADA Band
Difficulty: Novice | Version: 1
Capo : No Capo
Tranpose
Intro
	Piano
F#5 D5 A5 E5 x2
  
(Verse, Reff, Solo)
 
     F#5   D5    A5    E5            B5    C#5
e|--------------------------....----------------------|
B|--------------------------....----------------------|
G|---------7----------------....------4-----6---------|
D|---4-----7-----7-----2----....------4-----6---------|
A|---4-----5-----7-----2----....------2-----4---------|
E|---2-----------5-----0----....----------------------|
                           repeat according to song... 
 
 
 
Bridge
 
e|-----------------------------------------------------------------|
B|-----------------------------------------------------------------|
G|---7-----9-----------------------------7-----6-------------------|
D|---7-----9-----7-----7-----4-----2-----7-----6-----4-------------|
A|---5-----7-----7-----7-----4-----2-----5-----4-----4-------------|
E|---------------5-----4-----2-----0-----------------2-------------|
 Bintang terang....                      Janganlah...  
 
e|-----------------------------------------------------------------|
B|-----------------------------------------------------------------|
G|---4-----------------------------------4-----6-------------------|
D|---4-----2-----7-----7-----4-----2-----4-----6-------------------|
A|---2-----2-----7-----7-----4-----2-----2-----4-------------------|
E|---------0-----5-----4-----2-----0-------------------------------|
 Ku di belakangmu...                     Dan menjagamu
 
 
 
Solo
 
e|-----------------------------------------------------------------|
B|-------10\9-10-9-------------------------------------------------|
G|-----------------11-11-9-7--------9------------------------------|
D|---/11---------------------11-9-7--------------------------------|
A|-----------------------------------------------------------------|
E|-----------------------------------------------------------------|
 
e|------------------------------12----12---12----------------------|
B|-------10\9-10-12-14-14-12-10----10----9-------------------------|
G|-----------------------------------------------------------------|
D|---/11-----------------------------------------------------------|
A|-----------------------------------------------------------------|
E|-----------------------------------------------------------------|
 
e|-----------------------------------------------------------------|
B|-------10\9-10-9-------------------------------------------------|
G|-----------------11-11-9-7-9-7-----------------------------------|
D|---/11-------------------------11-11-9-7-/16---------------------|
A|-----------------------------------------------------------------|
E|-----------------------------------------------------------------|
 
e|------------------------/21--------------------------------------|
B|---------------19-18------------19-21-22-------------------------|
G|------19-18-16-------18------------------------------------------|
D|---16------------------------------------------------------------|
A|-----------------------------------------------------------------|
E|-----------------------------------------------------------------|

Chord & Lirik lagu ADA Band – Karena Wanita Ingin Dimengerti (Tab) di atas adalah hak cipta / hak milik dari pengarang, artis, band dan label musik yg bersangkutan. Seluruh media termasuk lirik lagu ataupun kunci gitar / Chord Gitar yang terdapat di situs ini hanyalah untuk keperluan promosi dan evaluasi.

Video Not Available