Chord ADA Band - Yang Terbaik Bagimu feat. Gita Gutawa (Tab)
Artis : ADA Band
Difficulty: Novice | Version: 1
Capo : No Capo
Tranpose
@Guitar Intro
e|--2--2-2-2-2--0--0-0-0-0--3--3-3-3-3--3--2--0--|
B|--3--3-3-3-3--3--3-3-3-3--3--3-3-3-3--3--3--3--|
G|--2--2-2-2-2--2--2-2-2-2--2--2-2-2-2--2--2--2--|
D|-----------------------------------------------|
A|-----------------------------------------------|
E|-----------------------------------------------|
 
@Keyboard Intro
e|--------------------------9-10----------------------------|
B|----------8-7-5-------5-8------10--------8-7-7p5---5------|
G|--4---4-7-------7-6-7--------------7---7---------7---6-7--|
D|----5--------------------------------9--------------------|
A|----------------------------------------------------------|
E|----------------------------------------------------------|
 
@Keyboard Interlude
e|----------3------------5---------------------------3-----------------------|
B|--------3---3--------5---5-7-8-7-5---------------3---3-5-3-2-------2--5-3--|
G|--4---4-------6---6----------------7-6-4---4---4-------------4-3-4---------|
D|----5-----------7----------------------------5-----------------------------|
A|---------------------------------------------------------------------------|
E|---------------------------------------------------------------------------|
 
e|----------3------------5---10---9---7-------|
B|--------3---3--------5---5--------------10--|
G|--4---4-------6---6-----------0---0---0-----|
D|----5-----------7---------------------------|
A|--------------------------------------------|
E|--------------------------------------------|
 
e|--------3-5-3--5p3p2-2--------------|
B|--3---3----------------5-3-2--5--3--|
G|----4-------------------------------|
D|------------------------------------|
A|------------------------------------|
E|------------------------------------|
 
@Gitar Interlude
e|----------3------------5---------------------------3-----------------------|
B|--------3---3--------5---5-7-8-7-5---------------3---3-5-3-2-------2---3---|
G|--4---4-------6---6----------------7-6-4---4---4-------------4-3-4---------|
D|----5-----------7----------------------------5-----------------------------|
A|---------------------------------------------------------------------------|
E|---------------------------------------------------------------------------|
 
e|----------3------------5-------------5------|
B|--------3---3--------5---5--7--5------------|
G|--4---4-------6---6---------------7---------|
D|----5-----------7---------------------------|
A|--------------------------------------------|
E|--------------------------------------------|
 
e|--------3-5-3--5p3p2-2--------------|
B|--3---3----------------5-3-2--5--3--|
G|----4-------------------------------|
D|------------------------------------|
A|------------------------------------|
E|------------------------------------|
 
 
Intro :
D
G A F#m Bm G A D
 
D    A        Bm   A
Teringat masa kecilku
G     F#m     Em     A
kau peluk dan kau manja
D    A     Bm   A
Indahnya saat itu
G      F#m  Em
buatku melambung
A     F#m      G
Disisimu terngiang
         Em        F#      Bm
hangat nafas segar harum tubuhmu
A        G       F#m
Kau tuturkan segala
         Em       A      D
mimpi-mimpi serta harapanmu
 
D    A        Bm   A
Kau inginku menjadi
G     F#m     Em     A
yang terbaik bagimu
D    A     Bm   A
Patuhi perintahmu
G      F#m  Em
jauhkan godaan
A     F#m      G
Yang mungkin ku lakukan
         Em        F#      Bm
dalam waktu ku beranjak dewasa
A        G       F#m
Jangan sampai membuatku
         Em       A      D
terbelenggu jatuh dan terinjak
 
G           F#m
Tuhan tolonglah
          G      A        D
sampaikan sejuta sayangku untuknya
G              Bm
Ku terus berjanji
        E        A
tak kan khianati pintanya
G           F#m
Ayah dengarlah
       G         A        D
betapa sesungguhnya ku mencintaimu
G           Bm
Kan ku buktikan
      E         A
ku mampu penuhi maumu
 
D    A        Bm   A
Kau inginku menjadi
G     F#m     Em     A
yang terbaik bagimu
D    A     Bm   A
Patuhi perintahmu
G      F#m  Em
jauhkan godaan
A     F#m      G
Yang mungkin ku lakukan
         Em        F#      Bm
dalam waktu ku beranjak dewasa
A        G       F#m
Jangan sampai membuatku
         Em       A      D
terbelenggu jatuh dan terinjak
 
D    A        Bm   A
Andaikan detik itu
G     F#m     Em     A
kan bergulir kembali
D    A     Bm   A
Ku rindukan suasana
G      F#m  Em
basuh jiwaku
A     F#m      G
Membahagiakan aku
         Em        F#      Bm
yang haus akan kasih dan sayangmu
A        G       F#m
Tuk wujudkan segala
         Em       A      D
sesuatu yang pernah terlewati
 
Interlude:
G A D G G F# Bm
G A D G G A D
G A D G G F# Bm
G A D G G A D

Chord & Lirik lagu ADA Band – Yang Terbaik Bagimu feat. Gita Gutawa (Tab) di atas adalah hak cipta / hak milik dari pengarang, artis, band dan label musik yg bersangkutan. Seluruh media termasuk lirik lagu ataupun kunci gitar / Chord Gitar yang terdapat di situs ini hanyalah untuk keperluan promosi dan evaluasi.

Video Not Available