Chord Alexa - Dewi (Tab)
Artis : Alexa
Difficulty: Novice | Version: 1
Capo : No Capo
Tranpose
Q    E  Q    E  Q       Q    E  Q    E  Q
E||-------|--0------------0-------|--2------------2-------|
B||-------|----------0------------|----------0------------|
G||-------|-------1----------1----|-------2----------2----|
D||-------|-----------------------|--2--------------------|
A||-------|-----------------------|-----------------------|
E||-------|--0--------------------|-----------------------|
 
 
  Q    E  Q    E  Q       Q    E  Q    E  Q       Q    E  Q    E  Q
--4------------4-------|--2------------2-------|--0------------0-------|
----------0------------|----------0------------|----------0------------|
-------1----------1----|-------2----------2----|-------1----------1----|
-----------------------|--2--------------------|-----------------------|
-----------------------|-----------------------|-----------------------|
--0--------------------|-----------------------|--0--------------------|
 
 
  Q    E  Q    E  Q       Q    E  Q    E  Q       Q    E  Q    E  Q
--2------------2-------|--4------------4-------|--2------------2-------|
----------0------------|----------0------------|----------0------------|
-------2----------2----|-------1----------1----|-------2----------2----|
--2--------------------|-----------------------|--2--------------------|
-----------------------|-----------------------|-----------------------|
-----------------------|--0--------------------|-----------------------|
 
 
  Q    E  Q    Q       Q    E  Q    Q       Q    E  Q    E  E
--------------------|--------------------|---------------------|
---------------0----|---------------0----|---------------------|
----------1---------|----------1---------|----------4----6-----|
-------2------------|-------2------------|-------6----------6--|
--------------------|--------------------|---------------------|
--0-----------------|--2-----------------|--4------------------|
Ku              tanamkan             hatiku                
 
 
  Q    E  Q    E  E     Q    E  Q    Q       Q    E  Q    E  Q
---------------------|--------------------|--0--------------------|
---------------------|---------------0----|---------------0-------|
----------4----6-----|----------2---------|----------2-------2----|
-------6----------6--|-------2------------|-------2---------------|
---------------------|--------------------|-----------------------|
--4------------------|--2-----------------|--2--------------------|
   tumbuh     bersamamu
 
  Q    E  Q    Q       Q    E  Q    E     Q    E  Q    Q
--------------------|--0---------------|--------------------|
---------------0----|---------------0--|---------------0----|
----------2---------|----------2-------|----------1---------|
-------2------------|-------2----------|-------2------------|
--2-----------------|--2---------------|--------------------|
--------------------|------------------|--0-----------------|
                                           Tak ‘kan ku petik
 
  Q    E  Q    Q       Q    E  Q    E  E     Q    E  Q    E  E
--------------------|---------------------|---------------------|
---------------0----|---------------------|---------------------|
----------1---------|----------4----6-----|----------4----6-----|
-------2------------|-------6----------6--|-------6----------6--|
--------------------|---------------------|---------------------|
--2-----------------|--4------------------|--4------------------|
        hingga         akhir                  masa 
 
  Q    E  Q    Q       Q    E  Q    E  Q       Q    E  Q    Q
--------------------|--0--------------------|--------------------|
---------------0----|---------------0-------|---------------0----|
----------2---------|----------2-------2----|----------2---------|
-------2------------|-------2---------------|-------2------------|
--------------------|-----------------------|--2-----------------|
--2-----------------|--2--------------------|--------------------|
  hidupku
 
  Q    E  Q    E     Q    E  Q    E  Q       Q    E  Q    E  E
--0---------------|-----------------------|---------------------|
---------------0--|---------------4-------|---------------4-----|
----------2-------|----------6-------6----|----------6-------6--|
-------2----------|-------6---------------|-------6-------------|
--2---------------|--4--------------------|--4------------------|
------------------|-----------------------|---------------------|
                        Dengarlah                 kau 
 
  Q    E  Q    E  Q       Q    E  Q    E  E     Q    E  Q    E  Q
-----------------------|---------------------|-----------------------|
---------------5-------|---------------5-----|---------------4-------|
----------7-------7----|----------7-------7--|----------6-------6----|
-------7---------------|-------7-------------|-------6---------------|
--5--------------------|--5------------------|--4--------------------|
-----------------------|---------------------|-----------------------|
 dengar                                           Selama 
 
  Q    E  Q    E  E     Q    E  Q    E  Q       Q    E  Q    H
---------------------|-----------------------|------------------------|
---------------4-----|---------------5-------|---------------0--------|
----------6-------6--|----------7-------7----|----------2-------------|
-------6-------------|-------7---------------|-------2----------------|
--4------------------|--5--------------------|--0---------------------|
---------------------|-----------------------|------------------------|
    bumi                 berputar   Ku           tetap   milikmu
 
  Q    E  Q    E  Q       Q    E  Q    E  Q       Q    E  Q    E  Q
--0------------0-------|--2------------2-------|--4------------4-------|
----------0------------|----------0------------|----------0------------|
-------1----------1----|-------2----------2----|-------1----------1----|
-----------------------|--2--------------------|-----------------------|
-----------------------|-----------------------|-----------------------|
--0--------------------|-----------------------|--0--------------------|
 
 
  Q    E  Q    E  Q       Q    E  Q    E  Q       Q    E  Q    E  E
--2------------2-------|-----------------------|---------------------|
----------0------------|---------------0-------|---------------0-----|
-------2----------2----|----------1-------1----|----------1----------|
--2--------------------|-------2---------------|-------2----------2--|
-----------------------|-----------------------|---------------------|
-----------------------|--0--------------------|--0------------------|
                              Dewi             
 
  Q    E  Q    E  Q       Q    E  Q    Q    E     Q    E  Q    Q    E
-----------------------|-----------------------|-----------------------|
---------------4-------|--5------------4-------|--------------------5--|
----------6-------6----|----------6---------6--|----------2----4-------|
-------6---------------|-------6---------------|-------4---------------|
--4--------------------|--4--------------------|-----------------------|
-----------------------|-----------------------|--2-----------------2--|
    bukalah                ke dua                 matamu
 
  Q    Q    H           Q    E  Q    Q    Q       Q    E  Q    Q    Q
---------------------|-------------------------|-------------------------|
---------------------|---------------7---------|---------------7---------|
-------2----4--------|----------6--------------|----------6--------------|
--4------------------|-------8------------8----|-------8------------8----|
---------------------|-------------------------|-------------------------|
---------------------|--6----------------------|--6----------------------|
                         Pandanglah ruang            di hati
 
  Q    E  Q    Q    E     Q    Q    Q    H           Q    E  Q    E  Q
-----------------------|------------2-------------|-----------------------|
----------2----4-------|--5--------------5--------|---------------0-------|
-------4------------4--|-------4------------------|----------1-------1----|
-----------------------|--------------------------|-------2---------------|
--2--------------------|--2-----------------------|-----------------------|
-----------------------|--------------------------|--0--------------------|
ku                                                     Dewi 
 
  Q    E  Q    H           Q    E  Q    E  Q       Q    E  Q    Q    E
--0---------------------|-----------------------|-----------------------|
---------------0--------|---------------4-------|--5------------4-------|
----------1-------------|----------6-------6----|----------6---------6--|
-------2----------------|-------6---------------|-------6---------------|
------------------------|--4--------------------|--4--------------------|
--0---------------------|-----------------------|-----------------------|
                            berikan                   nafasmu 
 
  Q    E  Q    Q    E     Q    Q    H           Q    E  Q    Q    Q
-----------------------|---------------------|-------------------------|
--------------------5--|---------------------|---------------7---------|
----------2----4-------|-------2----4--------|----------6--------------|
-------4---------------|--4------------------|-------8------------8----|
-----------------------|---------------------|-------------------------|
--2-----------------2--|---------------------|--6----------------------|
   untukku                                      Agar ku 
 
  Q    E  Q    Q    Q       Q    E  Q    Q    Q       Q    E  Q    Q    Q
-------------------------|-------------------------|-------------------------|
---------------7---------|---------------2---------|---------------0---------|
----------6--------------|----------4---------4----|----------2---------2----|
-------8------------8----|-------4-----------------|-------2-----------------|
-------------------------|--2----------------------|--0----------------------|
--6----------------------|-------------------------|-------------------------|
hidup                  bersamamu..                     bersamamu 
 
  Q    E  Q    Q    Q       Q    E  Q    Q    H           Q    E  Q    E  Q
-------------------------|-----------------------------|--0------------0-------|
-------------------------|-----------------------------|----------0------------|
---------------4---------|---------------2-------------|-------1----------1----|
----------6---------6----|----------4---------2--------|-----------------------|
-------6-----------------|-------4---------------------|-----------------------|
--4----------------------|--2--------------------------|--0--------------------|
                              terus   bersamamu                    
 
  Q    E  Q    E  Q       Q    E  Q    E  Q       Q    E  Q    E  Q
--2------------2-------|--4------------4-------|--2------------2-------|
----------0------------|----------0------------|----------0------------|
-------2----------2----|-------1----------1----|-------2----------2----|
--2--------------------|-----------------------|--2--------------------|
-----------------------|-----------------------|-----------------------|
-----------------------|--0--------------------|-----------------------|
 
 
  Q    E  Q    E  Q       Q    E  Q    E  Q       Q    E  Q    E  Q
--0------------0-------|--2------------2-------|--4------------4-------|
----------0------------|----------0------------|----------0------------|
-------1----------1----|-------2----------2----|-------1----------1----|
-----------------------|--2--------------------|-----------------------|
-----------------------|-----------------------|-----------------------|
--0--------------------|-----------------------|--0--------------------|
 
 
  Q    E  Q    E  Q       Q    E  Q    H           Q    E  Q    H
--2------------2-------|------------------------|------------------------|
----------0------------|---------------0--------|---------------0--------|
-------2----------2----|----------2-------------|----------2-------------|
--2--------------------|-------2----------------|-------2----------------|
-----------------------|------------------------|------------------------|
-----------------------|--2---------------------|--2---------------------|
                          huuuu
 
  Q    E  Q    H           Q    E  Q    H           Q    E  Q    H
------------------------|------------------------|------------------------|
---------------0--------|---------------0--------|---------------0--------|
----------2-------------|----------2-------------|----------1-------------|
-------2----------------|-------2----------------|-------2----------------|
--2---------------------|--2---------------------|------------------------|
------------------------|------------------------|--0---------------------|
 
 
  Q    E  Q    E     Q    E  Q    E  Q       Q    E  Q    E  E
------------------|-----------------------|---------------------|
---------------0--|---------------4-------|---------------4-----|
----------1-------|----------6-------6----|----------6-------6--|
-------2----------|-------6---------------|-------6-------------|
--2---------------|--4--------------------|--4------------------|
------------------|-----------------------|---------------------|
                        Dengarlah                 kau 
 
  Q    E  Q    E  Q       Q    E  Q    E  E     Q    E  Q    E  Q
-----------------------|---------------------|-----------------------|
---------------5-------|---------------5-----|---------------4-------|
----------7-------7----|----------7-------7--|----------6-------6----|
-------7---------------|-------7-------------|-------6---------------|
--5--------------------|--5------------------|--4--------------------|
-----------------------|---------------------|-----------------------|
 dengar                                           Selama 
 
  Q    E  Q    E  E     Q    E  Q    E  Q       Q    E  Q    H
---------------------|-----------------------|------------------------|
---------------4-----|---------------5-------|---------------0--------|
----------6-------6--|----------7-------7----|----------2-------------|
-------6-------------|-------7---------------|-------2----------------|
--4------------------|--5--------------------|--0---------------------|
---------------------|-----------------------|------------------------|
    bumi                 berputar   Ku           tetap   milikmu
 
  Q    E  Q    E  Q       Q    E  Q    E  Q       Q    E  Q    E  Q
--0------------0-------|--2------------2-------|--4------------4-------|
----------0------------|----------0------------|----------0------------|
-------1----------1----|-------2----------2----|-------1----------1----|
-----------------------|--2--------------------|-----------------------|
-----------------------|-----------------------|-----------------------|
--0--------------------|-----------------------|--0--------------------|
 
 
  Q    E  Q    E  Q       Q    E  Q    E  Q       Q    E  Q    E  E
--2------------2-------|-----------------------|---------------------|
----------0------------|---------------0-------|---------------0-----|
-------2----------2----|----------1-------1----|----------1----------|
--2--------------------|-------2---------------|-------2----------2--|
-----------------------|-----------------------|---------------------|
-----------------------|--0--------------------|--0------------------|
                              Dewi             
 
  Q    E  Q    E  Q       Q    E  Q    Q    E     Q    E  Q    Q    E
-----------------------|-----------------------|-----------------------|
---------------4-------|--5------------4-------|--------------------5--|
----------6-------6----|----------6---------6--|----------2----4-------|
-------6---------------|-------6---------------|-------4---------------|
--4--------------------|--4--------------------|-----------------------|
-----------------------|-----------------------|--2-----------------2--|
    bukalah                ke dua                 matamu
 
  Q    Q    H           Q    E  Q    Q    Q       Q    E  Q    Q    Q
---------------------|-------------------------|-------------------------|
---------------------|---------------7---------|---------------7---------|
-------2----4--------|----------6--------------|----------6--------------|
--4------------------|-------8------------8----|-------8------------8----|
---------------------|-------------------------|-------------------------|
---------------------|--6----------------------|--6----------------------|
                         Pandanglah ruang            di hati
 
  Q    E  Q    Q    E     Q    Q    Q    H           Q    E  Q    E  Q
-----------------------|------------2-------------|-----------------------|
----------2----4-------|--5--------------5--------|---------------0-------|
-------4------------4--|-------4------------------|----------1-------1----|
-----------------------|--------------------------|-------2---------------|
--2--------------------|--2-----------------------|-----------------------|
-----------------------|--------------------------|--0--------------------|
ku                                                     Dewi 
 
  Q    E  Q    H           Q    E  Q    E  Q       Q    E  Q    Q    E
--0---------------------|-----------------------|-----------------------|
---------------0--------|---------------4-------|--5------------4-------|
----------1-------------|----------6-------6----|----------6---------6--|
-------2----------------|-------6---------------|-------6---------------|
------------------------|--4--------------------|--4--------------------|
--0---------------------|-----------------------|-----------------------|
                            berikan                   nafasmu 
 
  Q    E  Q    Q    E     Q    Q    H           Q    E  Q    Q    Q
-----------------------|---------------------|-------------------------|
--------------------5--|---------------------|---------------7---------|
----------2----4-------|-------2----4--------|----------6--------------|
-------4---------------|--4------------------|-------8------------8----|
-----------------------|---------------------|-------------------------|
--2-----------------2--|---------------------|--6----------------------|
   untukku                                      Agar ku 
 
  Q    E  Q    Q    Q       Q    E  Q    Q    Q       Q    E  Q    Q    Q
-------------------------|-------------------------|-------------------------|
---------------7---------|---------------2---------|---------------0---------|
----------6--------------|----------4---------4----|----------2---------2----|
-------8------------8----|-------4-----------------|-------2-----------------|
-------------------------|--2----------------------|--0----------------------|
--6----------------------|-------------------------|-------------------------|
hidup                  bersamamu..                     bersamamu 
 
  Q    E  Q    Q    Q       Q    E  Q    Q    H           Q    E  Q    E  Q
-------------------------|-----------------------------|--0------------0-------|
-------------------------|-----------------------------|----------0------------|
---------------4---------|---------------2-------------|-------1----------1----|
----------6---------6----|----------4---------2--------|-----------------------|
-------6-----------------|-------4---------------------|-----------------------|
--4----------------------|--2--------------------------|--0--------------------|
                              terus   bersamamu                    
 
  Q    E  Q    E  Q       Q    E  Q    E  Q       Q    E  Q    E  Q
--2------------2-------|--4------------4-------|--2------------2-------|
----------0------------|----------0------------|----------0------------|
-------2----------2----|-------1----------1----|-------2----------2----|
--2--------------------|-----------------------|--2--------------------|
-----------------------|-----------------------|-----------------------|
-----------------------|--0--------------------|-----------------------|
 
 
  Q    E  Q    E  Q       Q    E  Q    E  Q       Q
--0------------0-------|--2------------2-------|-----------------------|
----------0------------|----------0------------|-----------------------|
-------1----------1----|-------2----------2----|--1--------------------|
-----------------------|--2--------------------|--2--------------------|
-----------------------|-----------------------|--2--------------------|
--0--------------------|-----------------------|--0--------------------|
 
 
 
-------------------|-------------------||
-------------------|-------------------||
-------------------|-------------------||
-------------------|-------------------||
-------------------|-------------------||
-------------------|-------------------||

Chord & Lirik lagu Alexa – Dewi (Tab) di atas adalah hak cipta / hak milik dari pengarang, artis, band dan label musik yg bersangkutan. Seluruh media termasuk lirik lagu ataupun kunci gitar / Chord Gitar yang terdapat di situs ini hanyalah untuk keperluan promosi dan evaluasi.

Video Not Available