Chord Alexa - Jangan Pernah Pergi (Tab)
Artis : Alexa
Difficulty: Novice | Version: 1
Capo : No Capo
Tranpose
Solo guitar
 
e|--12----12-12-----12-12-----12-12------|-------------|
B|----15b-------15b-------15b-------15b--|-------------|
G|---------------------------------------|-------------|
D|---------------------------------------|-------------|
A|---------------------------------------|-------------|
E|---------------------------------------|-------------|
 
e|-----------------------------|----------------------|
B|--12b12----------------------|----------------------|
G|-------11b-11br---9---11---11|-----9-11b-9--11b-----|
D|----------------11--11---11--|-9h11-------11--------|
A|-----------------------------|----------------------|
E|-----------------------------|----------------------|
 
e|--------------------------|-------------------------|
B|--------------------------|-------------------------|
G|--------------------------|--10-10-10---------------|
D|-8-8-8-9-9-9--11-11-11----|-------------------------|
A|--------------------------|-------------------------|
E|--------------------------|-------------------------|
 
e|---------------------------------------------------|
B|-12b-12b-12b-12b-12b-------------------------------|
G|---------------------------------------------------|
D|---------------------------------------------------|
A|---------------------------------------------------|
E|---------------------------------------------------|
 
Outro
 
e|------------------------------------------|-----------|
B|------------------------12b---------------|-----------|
G|--9-9-9-9-9-8----8h9--9------8h9--9-11b-9-|-----------|
D|--------------11----11-----11---11--------|-----------|
A|------------------------------------------|-----------|
E|------------------------------------------|-----------|
 
***********************************
| b     bend
| h     Hummer-on
***********************************

Chord & Lirik lagu Alexa – Jangan Pernah Pergi (Tab) di atas adalah hak cipta / hak milik dari pengarang, artis, band dan label musik yg bersangkutan. Seluruh media termasuk lirik lagu ataupun kunci gitar / Chord Gitar yang terdapat di situs ini hanyalah untuk keperluan promosi dan evaluasi.

Video Not Available