Chord Andra and the BackBone - Lagi Dan Lagi (Tab)
Difficulty: Novice | Version: 1
Capo : No Capo
Tranpose
[Intro](clean/reverb)
   "aku memang..."
e|-------7---------7---------|
B|----10---10---10---10------|
G|--9---------9---------9----|
D|---------------------------|
A|---------------------------|
E|---------------------------|
 
   "untuk..."
e|------7-------7------------|
B|----9---9---9---9----------|
G|--9-------9-------9--------|
D|---------------------------|
A|---------------------------|
E|---------------------------|
 
   "semua..."
e|-------7---------7---------|
B|----10---10---10---10------|
G|--9---------9---------9----|
D|---------------------------|
A|---------------------------|
E|---------------------------|
 
[Verse 1](distorted)
e|----------------------------------------| 2x
B|----------------------------------------|
G|----------------------------------------|
D|-------7---6----------------------------|
A|-----------------7---7---4---5p4--------|
E|--5-5----5---5-5---5---5---5-----7-5----|
     . .  . . . . . . . . . . . .   . .
 
e|----------------------------------------------------------------------|
B|----------------------------------------------------------------------|
G|----------------------------------------------------------------------|
D|----------------------------------------------------------------------|
A|--------11---12-----11---12-----12---14-----11---12---11-12-14p12p11--|
E|--0-0-0----0----0-0----0----0-0----0----0-0----0----0-----------------|
     . . . .  .  . . .  . .  . . .  . .  . . .  . .  .  
 
e|-----------------------------------------|
B|-----------------------------------------|
G|----------------------------7p6----------|
D|------7---7-----9---7---6-------7--------|
A|--5-5---5---5-5---5---5---5--------------|
E|-----------------------------------------|
     . . . . . . . . . . . . .
 
e|-----------------------------------------|
B|-----------------------------------------|
G|-----------------------------------------|
D|------7---6-----9---7---6---9p7p6--------|
A|--7-7---7---7-7---7---7---7--------------|
E|-----------------------------------------|
     . . . . . . . . . . . . .
 
[Pre chorus]
e|----------------------------------------------------------------------|
B|----------------------------------------------------------------------|
G|----------------------------------------------------------------------|
D|----------------------------------------------------------------------|
A|--------11---12-----11---12-----12---14-----11---12---11-12-14p12p11--|
E|--0-0-0----0----0-0----0----0-0----0----0-0----0----0-----------------|
     . . . .  .  . . .  . .  . . .  . .  . . .  . .  .  
 
[Chorus]
e|-------------------------------------------|
B|-------------------------------------------|
G|-------------------------------------------|
D|------7---7-----9---7---6---9p7p6----------|
A|--5-5---5---5-5---5---5---5----------------|
E|-------------------------------------------|
     . . . . . . . . . . . . .
 
e|-------------------------------------------|
B|-------------------------------------------|
G|-------------------------------------------|
D|------7---6-----9---7---6---9p7p6----------|
A|--7-7---7---7-7---7---7---7----------------|
E|-------------------------------------------|
     . . . . . . . . . . . . .
 
e|-------------------------------------------|
B|-------------------------------------------|
G|-------------------------------------------|
D|------7---6-----9---7---6---9p7p6----------|
A|-------------------------------------------|
E|--5-5---5---5-5---5---5---5----------------|
     . . . . . . . . . . . . .
 
e|-------------------------------------------|
B|-------------------------------------------|
G|-------------------------------------------|
D|-------------------------------------------|
A|------12---11-----14---12---11---14p12p11--|
E|--0-0----0----0-0----0----0----0-----------|
     . . . . . . . . . . . . .
 
e|-----------------------------------------|
B|-----------------------------------------|
G|----------------------------7p6----------|
D|------7---7-----9---7---6-------7--------|
A|--5-5---5---5-5---5---5---5--------------|
E|-----------------------------------------|
     . . . . . . . . . . . . .
 
e|-------------------------------------------|
B|-------------------------------------------|
G|-------------------------------------------|
D|------7---6-----9---7---6---9p7p6----------|
A|--7-7---7---7-7---7---7---7----------------|
E|-------------------------------------------|
     . . . . . . . . . . . . .
 
[Verse 2]
e|----------------------------------------|   4x
B|----------------------------------------|
G|----------------------------------------|
D|-------7---6----------------------------|
A|-----------------7---7---4---5p4--------|
E|--5-5----5---5-5---5---5---5-----7-5----|
     . .  . . . . . . . . . . . .   . . 
 
e|----------------------------------------------------------------------|
B|----------------------------------------------------------------------|
G|----------------------------------------------------------------------|
D|----------------------------------------------------------------------|
A|--------11---12-----11---12-----12---14-----11---12---11-12-14p12p11--|
E|--0-0-0----0----0-0----0----0-0----0----0-0----0----0-----------------|
     . . . .  .  . . .  . .  . . .  . .  . . .  . .  .  
 
e|-----------------------------------------|
B|-----------------------------------------|
G|----------------------------7p6----------|
D|------7---7-----9---7---6-------7--------|
A|--5-5---5---5-5---5---5---5--------------|
E|-----------------------------------------|
     . . . . . . . . . . . . .
 
e|-----------------------------------------|
B|-----------------------------------------|
G|-----------------------------------------|
D|------7---6-----9---7---6---9p7p6--------|
A|--7-7---7---7-7---7---7---7--------------|
E|-----------------------------------------|
     . . . . . . . . . . . . .
 
[Pre chorus]
e|----------------------------------------------------------------------|
B|----------------------------------------------------------------------|
G|----------------------------------------------------------------------|
D|----------------------------------------------------------------------|
A|--------11---12-----11---12-----12---14-----11---12---11-12-14p12p11--|
E|--0-0-0----0----0-0----0----0-0----0----0-0----0----0-----------------|
     . . . .  .  . . .  . .  . . .  . .  . . .  . .  .  
 
 
[solo](Kalo kamu punya w/ah, sikat saja!!)
[guitar 1]
     A5                                          Ab5
e|---------------------------------------------------------------|
B|---------------------------------------------------------------|
G|--14-14---13-13---9-9---6-6---14-14---13-13---9-9---6-6--------|
D|---------------------------------------------------------------|
A|---------------------------------------------------------------|
E|---------------------------------------------------------------|
 
     F#
e|---------------------------------------------------------------|
B|---------------------------------------------------------------|
G|--14-14---13-13---9-9---6-6---14-14---13-13---9-9---6-6--------|
D|---------------------------------------------------------------|
A|---------------------------------------------------------------|
E|---------------------------------------------------------------|
 
[guitar 2]comes in (1:53)
e|---------------------------------------------------------------|
B|---------------------------------------------------------------|
G|--18-18---16-16---14-14---9-9---18-18---16-16---14-14---9-9----|
D|---------------------------------------------------------------|
A|---------------------------------------------------------------|
E|---------------------------------------------------------------|
 
[guitar 1]
     D5            E5
e|---------------------------------------------------------------|
B|---------------------------------------------------------------|
G|--4-4-4-4-4-4h6------------4h6---------------------------------|
D|----------------6-6-6-6-6------7-------------------------------|
A|---------------------------------------------------------------|
E|---------------------------------------------------------------|
 
[guitar 2]
e|---------------------------------------------------------------|
B|---------------------------------------------------------------|
G|--7-7-7-7-7-7h9-4-4-4-4-4-4h6-7--------------------------------|
D|---------------------------------------------------------------|
A|---------------------------------------------------------------|
E|---------------------------------------------------------------|
 
[back to intro]

Chord & Lirik lagu Andra and the BackBone – Lagi Dan Lagi (Tab) di atas adalah hak cipta / hak milik dari pengarang, artis, band dan label musik yg bersangkutan. Seluruh media termasuk lirik lagu ataupun kunci gitar / Chord Gitar yang terdapat di situs ini hanyalah untuk keperluan promosi dan evaluasi.

Video Not Available