Chord Andra and the BackBone - Main Hati (Bass)
Difficulty: Novice | Version: 1
Capo : No Capo
Tranpose
intro-verse:
G|-------------------------------------------------|
D|-------------------------------------------------|
A|--2-2-6~-----4-2---------------------------------| X10
E|---2-------------0-0~----------------------------|
 
pre-chorus
G|-------------------------------------------------|
D|-------------------------------------------------|
A|------------------------1-2-4-2------------------|
E|--4~---------0~----------------------------------|
tak pernah sebelumnya....
 
G|-------------------------------------------------|
D|-------------------------------------------------|
A|-------------------------------------------------|
E|--4~---------00002222----------------------------|
tak pernah kuduga...
 
chorus
G|-------------------------------------------------|
D|-------------------------------------------------|
A|-------------------------------------------------|
E|--77777777---22222222---44444444---00002222------|
kuakui...ku main hati....
 
G|-------------------------------------------------|
D|-------------------------------------------------|
A|-------------------------------------------------|
E|--77777777---22222222---44444444---55555555------|
 
G|-------------------------------------------------|
D|-------------------------------------------------|
A|-------------------------------------------------|
E|--0~---------2~---------4~---------5~------------|  x4
bersamamu kurasakan.....
 
 
guitar solo
(play this during the solo)
G|-------------------------------------------------|
D|-------------------------------------------------|
A|--2-2-6~-----4-2---------------------------------| X4
E|---2-------------0-0~----------------------------|
 
chorus
G|-------------------------------------------------|
D|-------------------------------------------------|
A|-------------------------------------------------|
E|--77777777---22222222---44444444---00002222------| x4
 
ending
G|-------------------------------------------------|
D|-------------------------------------------------|
A|--2-2-6~-----4-2---------------------------------| x4
E|---2-------------0-0~----------------------------|
 
G|-------------------------------------------------|
D|-------------------------------------------------|
A|--2~~~-------------------------------------------|
E|-------------------------------------------------|

Chord & Lirik lagu Andra and the BackBone – Main Hati (Bass) di atas adalah hak cipta / hak milik dari pengarang, artis, band dan label musik yg bersangkutan. Seluruh media termasuk lirik lagu ataupun kunci gitar / Chord Gitar yang terdapat di situs ini hanyalah untuk keperluan promosi dan evaluasi.

Video Not Available