Chord Bondan Prakoso & Fade 2 Black - Rock On The Beat (Bass)
Difficulty: Novice | Version: 1
Capo : No Capo
Tranpose
Fig1
G|---------------------------------------------------------------------------|
D|---------7-5-7---------7-5-------------------------------------------------|
A|----------------------------0-2-0------------------------------------------|
E|--5-3-5---------5-3-5------------------------------------------------------|
 
G|---------------------------------------------------------------------------|
D|---------7-5-7---------7-5-------------------------------------------------|
A|----------------------------------0-3-2-0----------------------------------|
E|--5-3-5---------5-3-5-------0-1-3------------------------------------------|
 
G|---------------------------------------------------------------------------|
D|---------7-5-7---------7-5-------------------------------------------------|
A|----------------------------0-3-2------------------------------------------|
E|--5-3-5---------5-3-5------------------------------------------------------|
 
G|---------------------------------------------------------------------------|
D|---------7-5-7---------7-5-------------------------------------------------|
A|---------------------------------------------------------------------------|
E|--5-3-5---------5-3-5-------0h1-1h3----9\----------------------------------|
 
Fig2
G|---------------------------------------------------------------------------|
D|---------------------------------------------------------------------------|
A|----------------------------3-3--------------------------------------------|
E|--5-3-5-3-5-5-3---3-3-5-3-5-------5-3-5-3-5-5-3---3-3-5-3-5-3-3-1-1--------|
 
Fig3
G|---------------------------------------------------------------------------|
D|--7---5---3---2---3--------------5----5-----------3------------------------|
A|----------------------7----7--------------5--------------------------------|
E|--5---3---1---0---3---5--5---8-5-3--3-------3--1-----1-0-------------------|
 
Fig4
G|-------4h6-----7--------------------6~-------------------------------------|
D|----7------5h7------------7----5-5--------5-7------------------------------|
A|------------------5-0--------0----------0----------------------------------|
E|--5---------------------5--------------------------------------------------|
 
G|------------7---7-6--------------------------------------------------------|
D|------7p5---------------5h7------------------------------------------------|
A|----7-----7---7----------------7-4h5p4---7-4h5p4---7-4h5p4-----------------|
E|--5-------------------5------5---------5---------5---------5\--------------|
 
Fig5
G|-------------------------------------------------------------------------------|
D|---------------------------------5-3-------------------------------------------|
A|----------------------------3-3------------------------------3-5-3-5-3-5-3-----|
E|--5-3-5-3-5-5-3---3-3-5-3-5------------5-3-5-3-5-5-3---3-3-5---------------5\--|

Chord & Lirik lagu Bondan Prakoso & Fade 2 Black – Rock On The Beat (Bass) di atas adalah hak cipta / hak milik dari pengarang, artis, band dan label musik yg bersangkutan. Seluruh media termasuk lirik lagu ataupun kunci gitar / Chord Gitar yang terdapat di situs ini hanyalah untuk keperluan promosi dan evaluasi.

Video Not Available