Chord d'Masiv - Jangan Menyerah (Tab)
Artis : d'Masiv
Difficulty: Novice | Version: 1
Capo : No Capo
Tranpose
[INTRO]
     W                   H.           E  E     Q    S. T Q    Q    E
E||-------------------|---------------------|--5----L----3----1----0--|
B||-------------------|---------------------|-------------------------|
G||-------------------|------------------5--|-------------------------|
D||-------------------|---------------------|-------------------------|
A||-------------------|---------------------|-------------------------|
E||-------------------|---------------------|-------------------------|
 
 
  H        E  E  S. T E     Q.     Q    E.  T T E     H.           S. T E
--L--------------0----0--|--L----------------------|-----------------------|
-----------1--3----------|---------3----1---L---1--|--L------------L----1--|
-------------------------|-------------------------|-----------------------|
-------------------------|-------------------------|-----------------------|
-------------------------|-------------------------|-----------------------|
-------------------------|-------------------------|-----------------------|
 
 
  Q    S. T Q    Q    E
--5----L----3----1----0--|
-------------------------|
-------------------------|
-------------------------|
-------------------------|
-------------------------|
 
 
  H        E                                             E  S. T E
--L---------------------------------------------------------0----0--|
-----------1---------------------------------------------3----------|
--------------------------------------------------------------------|
--------------------------------------------------------------------|
--------------------------------------------------------------------|
--------------------------------------------------------------------|
 
 
  Q.     Q    E.  T T E     H.           S. E  T    W
--L----------------------|-----------------------|-------------------|
---------3----1---L---1--|--L------------L-------|-------------------|
-------------------------|-----------------------|-------------------|
-------------------------|-----------------------|-------------------|
-------------------------|-----------------------|-------------------|
-------------------------|-----------------------|-------------------|
 
 
  E  E  E  E  E  E  E  E     E  E  E  Q    E  E  E
-----------3-----------3--|-----------3----------3--|
--------1-----------1-----|--------1----------1-----|
-----0-----------0--------|-----0----------0--------|
--------------------------|-------------------------|
--------------------------|--0----------------------|
--1-----------3-----------|-------------------------|
 Tak Ada       Manusia
 Yang Terlahir Sempurna
 Jangan Kau    Sesali
 Segala Yang Telah Terjadi
 
 Kita Pasti    Pernah
 Dapatkan Cobaan Yang Berat
 Seakan Hidup Ini
 Tak Ada Artinya Lagi
 
 
 
F         G          Am
Syukuri Apa Yang Ada
F         G          C
Hidup Adalah Anugerah
F         G          Am
Tetap Jalani Hidup Ini
F         G          C
Melakukan Yang Terbaik
 
[INTRO]
[SOLO]
 
 
F        G              Am
Tuhan Pasti Kan Menunjukkan
F        G            C
Kebesaran dan Kuasanya
F        G              Am
Bagi Hambanya Yang Sabar
F        G            C
dan Tak Kenal Putus Asa
 
 
[OUTRO] F G Am
F C
 
 
[SOLO]
  W                   W                   E  E  S E.  E  E  S E.
-------------------|-------------------|-----8----8------7----7---|
-------------------|-------------------|--1-----------0-----0-----|
-------------------|-------------------|--------5-----------------|
-------------------|-------------------|--------------------------|
-------------------|-------------------|--------------------------|
-------------------|-------------------|--------------------------|
 
 
  E  E  S E.  E  E  S E  S    E  E  S E  T T E  E  S E.
-----5----5------3----3----|-----3----3--L------1----1---|
---------------------------|--1-----1--------1-----1-----|
--------------------0------|-----------------------------|
--7-----7-----5------------|-----------------------------|
---------------------------|-----------------------------|
---------------------------|-----------------------------|
 
 
  Q    S E  T T H           E  S S S S S S S S S S S. T S S
--0----L-0--L---0--------|-----3---1---0-----0-----0--------|
-------------------------|--1--------------3---1-3------3-1-|
-------------------------|----------------------------------|
-------------------------|----------------------------------|
-------------------------|----------------------------------|
-------------------------|----------------------------------|
 
 
  S S S S S. T S S E  S E  S S S    E.  T T E  S S E  T T S E  E
----------------------1----------|--0---L---3--0-3-0--------------|
--0-------1----3-1-3----3--1---1-|--------------------1---1-3--1--|
----2-0-2--------------------2---|--------------------------------|
---------------------------------|--------------------------------|
---------------------------------|--------------------------------|
---------------------------------|--------------------------------|
 
 
  Q.     T T S E  S. T E  E     Q.     S H        S    H        E  S. T E  E
------------------6-------6--|--L------L------------|--------------6-------6--|
--L------1---1-3-------3-----|----------------------|-----------3-------3-----|
-----------------------------|----------------------|-------------------------|
-----------------------------|----------------------|-------------------------|
-----------------------------|----------------------|-------------------------|
-----------------------------|----------------------|-------------------------|
 
 
  H.           E.  S    H.           E.  S    Q.     Q.     S. T  E
--L------------L-----|-------------------1-|--5------7------L-----8--|
---------------------|-------------------0-|---------8------L----10--|
---------------------|---------------------|-------------------------|
---------------------|---------------------|-------------------------|
---------------------|---------------------|-------------------------|
---------------------|---------------------|-------------------------|
 
 
  Q.     E  E   E   S S  E     Q    S S  Q.     S. T  E
--L---------8--10--12---12--|--L----L---10------L--------|
--L------8------------------|------------------------13--|
------------------------12--|--L----L---12------L----12--|
----------------------------|----------------------------|
----------------------------|----------------------------|
----------------------------|----------------------------|
 
 
  H        S. Q.     T    W
-----------------------|-------------------|
--L--------L-----------|-------------------|
--L--------L-----------|-------------------|
-----------------------|-------------------|
-----------------------|-------------------|
-----------------------|-------------------|
 
 
[OUTRO]
  W                   W                   H.           E  E
-------------------|-------------------|---------------------|
-------------------|-------------------|------------------1--|
-------------------|-------------------|---------------------|
-------------------|-------------------|---------------------|
-------------------|-------------------|---------------------|
-------------------|-------------------|---------------------|
 
 
  Q    S. T Q    Q    E     H        E  E  S. T E     Q.     Q    E.  T T E
--5----L----3----1----0--|--L--------------0----0--|--L----------------------|
-------------------------|-----------1--3----------|---------3----1---L---1--|
-------------------------|-------------------------|-------------------------|
-------------------------|-------------------------|-------------------------|
-------------------------|-------------------------|-------------------------|
-------------------------|-------------------------|-------------------------|
 
 
  H.           S. T E     Q    S. T Q    Q    E     H        E  E  S. T E
-----------------------|--5----L----3----1----0--|--L--------------0----0--|
--L------------L----1--|-------------------------|-----------1--3----------|
-----------------------|-------------------------|-------------------------|
-----------------------|-------------------------|-------------------------|
-----------------------|-------------------------|-------------------------|
-----------------------|-------------------------|-------------------------|
 
 
  Q.     Q    E.  T T E
--L----------------------|
---------3----1---L---1--|
-------------------------|
-------------------------|
-------------------------|
-------------------------|
 
 
  H.                                            S. E  T
--------------------------------------------------------|----|----||
--L---------------------------------------------L-------|----|----||
--------------------------------------------------------|----|----||
--------------------------------------------------------|----|----||
--------------------------------------------------------|----|----||
--------------------------------------------------------|----|----||

Chord & Lirik lagu d'Masiv – Jangan Menyerah (Tab) di atas adalah hak cipta / hak milik dari pengarang, artis, band dan label musik yg bersangkutan. Seluruh media termasuk lirik lagu ataupun kunci gitar / Chord Gitar yang terdapat di situs ini hanyalah untuk keperluan promosi dan evaluasi.

Video Not Available