Chord d'Masiv - Merindukanmu (Tab)
Artis : d'Masiv
Difficulty: Novice | Version: 1
Capo : No Capo
Tranpose
||INTRO||-->Gtr Solo...
 
       C              Cmaj7             F             F
E||--------------------------------|-------------------------------|
B||-----1-----1---------0-----0----|-----1-----1---------1----1----|
G||---0-----0--0------0-----0--0---|---0-----0---0-----0----0---0--|
D||-------------2---------------2--|-3-----3------3--3----3-------3|
A||-3-----3---------3-----3--------|-------------------------------|
E||--------------------------------|-------------------------------|
 
 
--------------------------------------------------------------------
--------------------------------------------------------------------
 
Stophe
       C              Cmaj7             F             F
E||--------------------------------|-------------------------------|
B||-----1-----1---------0-----0----|-----1-----1---------1----1----|
G||---0-----0--0------0-----0--0---|---0-----0---0-----0----0---0--|
D||-------------2---------------2--|-3-----3------3--3----3-------3|
A||-3-----3---------3-----3--------|-------------------------------|
E||--------------------------------|-------------------------------|
 
 
 
       C              Cmaj7             F             F
E||--------------------------------|-------------------------------|
B||-----1-----1---------0-----0----|-----1-----1---------1----1----|
G||---0-----0--0------0-----0--0---|---0-----0---0-----0----0---0--|
D||-------------2---------------2--|-3-----3------3--3----3-------3|
A||-3-----3---------3-----3--------|-------------------------------|
E||--------------------------------|-------------------------------|
 
 
       Am                G               F             F
E||--------------------------------|-------------------------------|
B||-----1-----1---------0---- 0----|-----1-----1---------1----1----|
G||---2-----2---2-----0---- 0---0--|---0-----0---0-----0----0---0--|
D||--------------2---------------0-|-3-----3------3--3----3-------3|
A||-0-----0------------------------|-------------------------------|
E||------------------3----3--------|-------------------------------|
 
 
       Am                G               F             G
E||--------------------------------|-----------0-------------------|
B||-----1-----1---------0-----0----|-----1------1--------0---------|
G||---2-----2---2-----0-----0---0--|---0-----0----0----0-----------|
D||--------------2---------------0-|-3-----3-----------------------|
A||-0-----0------------------------|-------------------------------|
E||------------------3----3--------|-----------------3-------------|
 
 
--------
|REFF :|
--------
 
F-Em-Dm-G-C-C7
F-Em-A-Dm-G-C
 
 
Guitar (back To strophe )
       C
E||---------------------------3--0-||
B||-----1-----1---------3----------||
G||---0-----0--0------0-----0------||
D||-------------2------------------||
A||-3-----3---------3-----3--------||
E||--------------------------------||
 
 
Guitar Solo...
 
 
 
E||----------------12-13---------------------------------15-12---------------------15-12--|
B||-12h13----13-15-------15--13-13-15-12--12-13-15-13-15------13-12-13-15-13-12-13--------|
G||-------12----------------------------12------------------------------------------------|
D||---------------------------------------------------------------------------------------|
A||---------------------------------------------------------------------------------------|
E||---------------------------------------------------------------------------------------|
 
Back TO Reff...
END...

Chord & Lirik lagu d'Masiv – Merindukanmu (Tab) di atas adalah hak cipta / hak milik dari pengarang, artis, band dan label musik yg bersangkutan. Seluruh media termasuk lirik lagu ataupun kunci gitar / Chord Gitar yang terdapat di situs ini hanyalah untuk keperluan promosi dan evaluasi.

Video Not Available