Chord Dewa 19 - Kosong (Tab)
Artis : Dewa 19
Difficulty: Novice | Version: 1
Capo : No Capo
Tranpose
[After Chorus of Verse 1, before Verse 2]

Kau tulis nama mu.................

[Lead Solo in the Middle of the song]

  G  G  G  G  G  G  G  G  G  G  G  G  Bm >G  G  G  G  G  G  G  G  G  G  G  G  Bm
e|-----------------------------------------------------------------------------------|
B|8----8----8----8----8----8----8----8b----8----8----8----8----8----8----8----8b-----|
G|-----------------------------------------------------------------------------------|
D|-----------------------------------------------------------------------------------|
A|-----------------------------------------------------------------------------------|
E|-----------------------------------------------------------------------------------|

[Second Part]

  Dm >>>>>>>>>>> E >>>>>>>>>>> C >>>>>>>>>>> Cm [next part]
e|------------------------------------------13-------------------------------|
B|8--10-11-10--14--11-10-11--15-14-13-14------13-----------------------------|
G|----------------------------------------------13---------------------------|
D|---------------------------------------------------------------------------|
A|---------------------------------------------------------------------------|
E|---------------------------------------------------------------------------|


[Third / Last Part]

  G >>>>>>>> C >>>>>>>>>>> G >>>>>>>>>>> D (Let Strum)
e|-----------10--------------|------------17--15-17t-------------------------------------|
B|9--10--12-----13--10-------|-----------------------------------------------------------|
G|---------------------11----|-10--12--14------------------------------------------------|
D|------------------------12-|-----------------------------------------------------------|
A|---------------------------|-----------------------------------------------------------|
E|---------------------------|-----------------------------------------------------------|

Dewa 19 - Kosong

[Verse 1]
G            Bm
Kamu seperti hantu
G            Bm
Terus menghantuiku
Dm          E          C
Ke mana pun tubuhku pergi
Cm  G              C   D
Kau terus membayangi aku
G (Strum Upward) Bm
Salahku biarkan kamu
G       Bm
Bermain dengan hatiku
Dm        E           C
Aku tak bisa memusnahkan
Cm     G         C   D
Kau dari pikiranku ini


[Chorus]
                Bb Eb        Bb       Eb
Di dalam keramaian aku masih merasa sepi
Bb        Eb          F  Ab
Sendiri memikirkan kamu
                Cm  Eb
Kau genggam hatiku
           Bb        Eb
Dan kau tuliskan namamu
    Bb         D
Kau tulis namamu


[INSERT Lead Solo part here]


[Verse 2]
G       Bm
Tubuhku ada di sini
G      Bm
Tetapi tidak jiwaku
Dm             E        C > Cm
Kosong yang hanya kurasakan
Cm     G             C    D
Kau telah tinggal di hatiku


[Chorus]
         Bb        Eb        Bb       Eb
Di dalam keramaian aku masih merasa sepi
Bb        Eb         F > Ab
Sendiri memikirkan kamu
            Cm > Eb
Kau genggam hatiku
Eb         Bb        Eb
Dan kau tuliskan namamu
    Bb        F
Kau tulis namamu
         C         F         C        F
Di dalam keramaian aku masih merasa sepi
C         F          G > Bb
Sendiri memikirkan kamu
            Dm     > F
Kau genggam hatiku
          C          F
Dan kau tuliskan namamu
       C       F
Kau tulis namamu
       C       F
Kau tulis namamu
       C       F
Kau tulis namamu
       C       D
Kau tulus namamoooooooooooooooouuuuuu...

Chord & Lirik lagu Dewa 19 – Kosong (Tab) di atas adalah hak cipta / hak milik dari pengarang, artis, band dan label musik yg bersangkutan. Seluruh media termasuk lirik lagu ataupun kunci gitar / Chord Gitar yang terdapat di situs ini hanyalah untuk keperluan promosi dan evaluasi.

Video Not Available