Chord Dewa 19 - Pangeran Cinta (Tab)
Artis : Dewa 19
Difficulty: Novice | Version: 1
Capo : No Capo
Tranpose
eb|--------------------------------------------|
Bb|--------------------------------------------|
Gb|---------7-----10------8--------------------|
Db|-5-------7-----10------8--------------------|
Ab|-5-------5------8------6--------------------|
Eb|-3------------------------------------------|

eb|--------------------------------------------|
Bb|--------------------------------------------|
Gb|------7----10----8--------------------------|
Db|-5------------------------------------------|
Ab|------5----8-----6--------------------------|
Eb|-3------------------------------------------|

DETIK.. DETIK BERGANTI DENGAN DETIK
MINIT PUN SILIH BERGANTI
HARI-HARI PUN TERUS BERGANTI
BULAN-BULAN JUGA TERUS BERGANTI
ZAMAN-ZAMAN PUN TERUS BERUBAH
HIDUP INI JUGA PASTI MATI

REFF

SEMUA INI PASTI AKAN MUSNAH
TETAPI TIDAK CINTAKU PADAMU
KARENA AKU SANG PANGERAN CINTA
eb|--------------------------------------------|
Bb|--------------------------------------------|
Gb|-------7----10--5-/-7-/-8-------------------|
Db|-5------------------------------------------|
Ab|-3-----5----8---3-/-5-/-6-------------------| all note tremolo picking
Eb|-3------------------------------------------|


eb|--------------------------------------------|
Bb|--------------------------------------------|
Gb|---------7-----10------8--------------------|
Db|-5-------7-----10------8--------------------|
Ab|-5-------5------8------6--------------------| palm mute
Eb|-3------------------------------------------|
MALAM MALAM DIGANTI DENGAN PAGI
PAGIPUN JADI SIANG
TAHUN-TAHUN PUN BERGANTI ABAD
YANG MUDA PUN PASTI MENJADI TUA
MUSIM-MUSIM PUN TERUS BERGANTI
HIDUP INI JUGA PASTI MATI


eb|--------------------------------------|
Bb|--------------------------------------|
Gb|-------7----10----8-------------------|
Db|-5------------------------------------|
Ab|-3-----5----8-----6-------------------|
Eb|-3------------------------------------|
TAK AKAN ADA YANG ABADI
TAK AKAN ADA YANG KEKAL

SEMUA INI PASTI AKAN MUSNAH
TETAPI TIDAK CINTAKU PADAMU
KARENA AKU SANG PANGERAN CINTA

eb|--------------------------------------------|
Bb|--------------------------------------------|
Gb|-------7----10--5-/-7-/-8-------------------|
Db|-5------------------------------------------|
Ab|-3-----5----8---3-/-5-/-6-------------------| all note tremolo picking
Eb|-3------------------------------------------|


Solo (rhythm)
eb|------------------------------------|
Bb|------------------------------------|
Gb|------------------------------------|
Db|-5----6-----------------------------|
Ab|-3----4-----------------------------|
Eb|-3----4-----------------------------|

REFF
REFF
REFF

Chord & Lirik lagu Dewa 19 – Pangeran Cinta (Tab) di atas adalah hak cipta / hak milik dari pengarang, artis, band dan label musik yg bersangkutan. Seluruh media termasuk lirik lagu ataupun kunci gitar / Chord Gitar yang terdapat di situs ini hanyalah untuk keperluan promosi dan evaluasi.

Video Not Available