Chord Kangen Band - Selingkuh (Tab)
Difficulty: Novice | Version: 1
Capo : No Capo
Tranpose
Tuning: standard
 
Intro:
e|-----------------|--------0------------0-----------|
B|-------0---------|----------0-------------0--------|
G|-----2---2---4X--|-----2-------------2-------------|
D|---2-------------|---2-------------2---------------|
A|-0---------------|-0-------------0-----------------|
E|-----------------|---------------------------------|
 
 
verse 1:
e|-------------------|------0-------0------|---------------------|
B|-------0---------0-|--------0-------0----|-------0---------0---|
G|-----2---2-----2---|---------------------|-----2---2-----2---2-|
D|---2---------2-----|----2--------2----4X-|---2---------2-------| 2X
A|-0---------0-------|--2--------2---------|-0---------0---------|
E|-------------------|0--------0-----------|---------------------|
 
bridge:
e|-------0----------0-----------------------------|-----0~-----|
B|-----3---3----------0--------0----------0-------|-----2~-----|
G|---2-----------------------2---0------2------2X-|-----2~-----|
D|-0--------------2--------2----------2-----------|-----2------|
A|--------------2--------0----------0-------------|-----0~-----|
E|------------0-----------------------------------|------------|
 
verse 2:
 
A E
pacarku mengertilah aku
A
seperti aku mengerti kamu
A E
dan pacarku pahamilah aku
A
seperti ku memahamimu
 
chorus:
D E
andaikan bulan andaikan bintang
A E/Ab F#m
dapat berbicara
D E A
kan ku biarkan tahu yg sesungguhnya
D E
andaikan bulan andaikan bintang
A E/Ab F#m
mereka saling berbisik
D E A
tentu cinta kita takkan terusik
 
 
solo:
e|---------------9--------9---7--------7---5--------5--------4-----|
B|-3/7----9-10--------10------------9------------7--------5--------|
G|------------------9------------9------------6--------6-----------|
D|-----------------------------------------------------------------|
A|-----------------------------------------------------------------|
E|-----------------------------------------------------------------|
 
e|---------------------------------------17~-----------|
B|-----7----10-9-----14--17-----------17---------------|
G|----------------------------16--14-------------------|
D|-----------------------------------------------------|
A|-----------------------------------------------------|
E|-----------------------------------------------------|
 
ulangi verse 2;
 
ulangi bridge;
 
ulangi chorus;

Chord & Lirik lagu Kangen Band – Selingkuh (Tab) di atas adalah hak cipta / hak milik dari pengarang, artis, band dan label musik yg bersangkutan. Seluruh media termasuk lirik lagu ataupun kunci gitar / Chord Gitar yang terdapat di situs ini hanyalah untuk keperluan promosi dan evaluasi.

Video Not Available