Chord Nidji - Airin (Tab)
Artis : Nidji
Difficulty: Novice | Version: 1
Capo : No Capo
Tranpose
1. Intro
Guitar I
E|-----------------------------------------|
B|-----------------------------------------|
G|7-10-7----------------7-10-7-------------|
D|-------10-7--10-7------------10-7-10-7---|
A|-------------------10------------------10|
e|-----------------------------------------|
 
Guitar II
E|-----------------------------------------|
B|-----------------------------------------|
G|-----------------------------------------|
D|-----------------------------------------|
A|-----------------------------------------|
e|-----------------------------------------|
 
 
Guitar I
E|-----------------------------------------|
B|-----------------------------------------|
G|7-10-7----------------7-10-7-------------|
D|-------10-7--10-7------------10-7-10-7---|
A|-------------------10------------------10|
e|-----------------------------------------|
 
Guitar II
E|--5----5-----8-----8----1----1----3----3-|
B|--6----6-----10----10---3----3----5----5-|
G|--7----7-----10----10---3----3----5----5-|
D|7-7--7-7--10-10-10-10-3-3--3-3--5-5--5-5-|
A|5-5--5-5--8--8--8--8--1-1--1-1--3-3--3-3-|
e|5-5--5-5--8--8--8--8--1-1--1-1--3-3--3-3-|
 
 
2. Verse#1
Guitar I
E|-----------------------------------|
B|-----------------------------------|
G|-----------------------------------|
D|-----------------------------------|
A|-----------------------------------|
e|-----------------------------------|
 
Guitar II
E|-----------------------------------|
B|-----------------------------------|
G|-----------------------------------|
D|7-7-7-7-10-10-10-10-3-3-3-3-5-5-5-5|
A|5-5-5-5-8--8--8--8--1-1-1-1-3-3-3-3|
e|5-5-5-5-8--8--8--8--1-1-1-1-3-3-3-3|
 
Play the verse 4x
 
 
3. Pre-chorus
Guitar I & Guitar II
E|1-1-3-3-5-5-8--8--1-1-3-3-5-5-3-3|
B|3-3-5-5-6-6-10-10-3-3-5-5-6-6-5-5|
G|3-3-5-5-7-7-10-10-3-3-5-5-7-7-5-5|
D|3-3-5-5-7-7-10-10-3-3-5-5-7-7-5-5|
A|1-1-3-3-5-5-8--8--1-1-3-3-5-5-3-3|
e|1-1-3-3-5-5-8--8--1-1-3-3-5-5-3-3|
 
 
4. Chorus
Guitar I
E|--1---1---1---1---1---1---1---1|
B|--1---1---1---1---3---3---3---3|
G|--2---2---2---2---3---3---3---3|
D|--3---3---3---3---3---3---3---3|
A|--3---3---3---3---1---1---1---1|
e|--1---1---1---1---1---1---1---1|
 
Guitar II
E|1-1-1-1-1-1-1-1-1-1-1-1-1-1-1-1|
B|1-1-1-1-1-1-1-1-3-3-3-3-3-3-3-3|
G|2-2-2-2-2-2-2-2-3-3-3-3-3-3-3-3|
D|3-3-3-3-3-3-3-3-3-3-3-3-3-3-3-3|
A|3-3-3-3-3-3-3-3-1-1-1-1-1-1-1-1|
e|1-1-1-1-1-1-1-1-1-1-1-1-1-1-1-1|
 
 
Guitar I
E|5-5-5-5-5-------3-3-3-3-3-3-3-3|
B|6-6-6-6-6-8-8-7-5-5-5-5-5-5-5-5|
G|7-7-7-7-7-------5-5-5-5-5-5-5-5|
D|7-7-7-7-7-------5-5-5-5-5-5-5-5|
A|5-5-5-5-5-------3-3-3-3-3-3-3-3|
e|5-5-5-5-5-------3-3-3-3-3-3-3-3|
 
Guitar II
E|5-5-5-5-5-5-5-5-3-3-3-3-3-3-3-3|
B|6-6-6-6-6-6-6-6-5-5-5-5-5-5-5-5|
G|7-7-7-7-7-7-7-7-5-5-5-5-5-5-5-5|
D|7-7-7-7-7-7-7-7-5-5-5-5-5-5-5-5|
A|5-5-5-5-5-5-5-5-3-3-3-3-3-3-3-3|
e|5-5-5-5-5-5-5-5-3-3-3-3-3-3-3-3|
 
Play the chorus 2x
 
 
5. After-chorus
Guitar I
E|-----------------------------|
B|-----------------------------|
G|-----------------------------|
D|3---3---7---7---8---8---10---|
A|3---3---7---7---8---8---10---|
e|1---1---5---5---6---6---8----|
 
Guitar II
E|-----------------------------|
B|-----------------------------|
G|-----------------------------|
D|3-------7-------8-------10---|
A|3-------7-------8-------10---|
e|1-------5-------6-------8----|
 
 
Guitar I
E|----------------6-6-6-6-8--9-|
B|----------------6-6-6-6-8--9-|
G|----------------7-7-7-7-9--9-|
D|3-3-3-3-7-7-7-7-8-8-8-8-10-10|
A|3-3-3-3-7-7-7-7-8-8-8-8-10-10|
e|1-1-1-1-5-5-5-5-6-6-6-6-8--10|
 
Guitar II
E|1---1---5---5---6---6---8----|
B|1---1---5---5---6---6---8----|
G|2---2---5---5---7---7---9----|
D|3---3---7---7---8---8---10---|
A|3---3---7---7---8---8---10---|
e|1---1---5---5---6---6---8----|
 
 
6. Interlude
Guitar I
E|-----------------------------------------|
B|-----------------------------------------|
G|7-10-7----------------7-10-7-------------|
D|-------10-7--10-7------------10-7-10-7---|
A|-------------------10------------------10|
e|-----------------------------------------|
 
Guitar II
E|5-5--5-5--8--8--8--8--1-1--1-1--3-3--3-3-|
B|6-6--6-6--10-10-10-10-3-3--3-3--5-5--5-5-|
G|7-7--7-7--10-10-10-10-3-3--3-3--5-5--5-5-|
D|7-7--7-7--10-10-10-10-3-3--3-3--5-5--5-5-|
A|5-5--5-5--8--8--8--8--1-1--1-1--3-3--3-3-|
e|5-5--5-5--8--8--8--8--1-1--1-1--3-3--3-3-|
 
Play it 2x
 
 
7. Verse#2
Guitar I
E|------5----------8--------1-----3335|
B|------6----------10-------3-----5556|
G|------6----------10-------3-----5556|
D|------7----------10-------3-----5557|
A|------5----------8--------1-----3335|
e|------5----------8--------1-----3335|
 
Guitar II
E|------------------------------------|
B|------------------------------------|
G|------------------------------------|
D|7-7-7-7-10-10-10-10-3-3-3-3-5-5-5-5-|
A|5-5-5-5-8--8--8--8--1-1-1-1-3-3-3-3-|
e|5-5-5-5-8--8--8--8--1-1-1-1-3-3-3-3-|
 
Play the verse 4x
 
 
Back to: Pre-chorus, Chorus
 
 
8. Interlude
Guitar I & Guitar II
E|1-------1-------5-------3-------|
B|1-------3-------6-------5-------|
G|2-------3-------7-------5-------|
D|3-------3-------7-------5-------|
A|3-------1-------5-------3-------|
e|1-------1-------5-------3-------|
 
Play it 2x
 
 
9. Ending
Guitar I & Guitar II
E|1-1-1-1-5-5-5-5-6-6-6-6-8--8--8--8--|
B|1-1-1-1-5-5-5-5-6-6-6-6-8--8--8--8--|
G|2-2-2-2-5-5-5-5-7-7-7-7-9--9--9--9--|
D|3-3-3-3-7-7-7-7-8-8-8-8-10-10-10-10-|
A|3-3-3-3-7-7-7-7-8-8-8-8-10-10-10-10-|
e|1-1-1-1-5-5-5-5-6-6-6-6-8--8--8--8--|
 
 
Guitar I & Guitar II
E|1-1-1-1-5-5-5-5-6-6-6-6-8--8--8--8---1---|
B|1-1-1-1-5-5-5-5-6-6-6-6-8--8--8--8---1---|
G|2-2-2-2-5-5-5-5-7-7-7-7-9--9--9--9---2---|
D|3-3-3-3-7-7-7-7-8-8-8-8-10-10-10-10--3---|
A|3-3-3-3-7-7-7-7-8-8-8-8-10-10-10-10--3---|
e|1-1-1-1-5-5-5-5-6-6-6-6-8--8--8--8---1---|
 
 
Song ends here
 
Lyrics:
 
Ironi dalam hidupku
Aku pikiranku
Uang hanyalah kertas
Aku orang yang bebas
 
Cantikku kau jerat aku
Apalah daya hatiku
Membeli cinta untukmu
Saat ku tak mampu
 
Sofly in this lonely time of man
 
Bukan aku tak cinta
Tapi aku tak mampu
Airin.. Airin..
Jalan kita berbeda
Jangan salahkan aku
Airin.. Airin..
Airin.. Airin..
 
Andaikan aku bisa
Andaikan aku mampu
Merubah jalan hidupku
Untuk bersamamu
 
Wanita tolonglah aku
Berikan aku cahaya
Tunjukkan jalan terangmu
Yang tidak butakan aku
 
Sofly in this lonely time of man
 
Bukan aku tak cinta
Tapi aku tak mampu
Airin.. Airin..
Jalan kita berbeda
Jangan salahkan aku
Airin.. Airin..
 
Ooo.. Airin..
Ooo.. Airin..
Ooo.. Airin..
Ooo.. Airin..
 
Airin aku takkan pernah
Mampu untuk mencintai
Airin aku takkan pernah
Mampu untuk.. mencintai..mu

Chord & Lirik lagu Nidji – Airin (Tab) di atas adalah hak cipta / hak milik dari pengarang, artis, band dan label musik yg bersangkutan. Seluruh media termasuk lirik lagu ataupun kunci gitar / Chord Gitar yang terdapat di situs ini hanyalah untuk keperluan promosi dan evaluasi.

Video Not Available