Chord NOAH - Bintang Di Surga (Bass)
Artis : NOAH
Difficulty: Novice | Version: 1
Capo : No Capo
Tranpose
G|-----------------------------------------------------|
D|-----------------------------------------------------|
A|---7--7--7--7-5-3--3--3--3-5-------------------------|
E|-----------------------------3--3--3--3-5-7--7--7--7-|
 Masihku merasa angkuh...... Walaukan terjatuh

G|-----------------------------------------------------|
D|-----------------------------------------------------|
A|---7--7--7--7-5-3--3--3--3-5-------------------------|
E|-----------------------------3--3--3--3-5-7--7--7--7-|
 Dan bila...... hampa hidup terasa

Chord & Lirik lagu NOAH – Bintang Di Surga (Bass) di atas adalah hak cipta / hak milik dari pengarang, artis, band dan label musik yg bersangkutan. Seluruh media termasuk lirik lagu ataupun kunci gitar / Chord Gitar yang terdapat di situs ini hanyalah untuk keperluan promosi dan evaluasi.

Video Not Available