Chord NOAH - Dan Hilang
Artis : NOAH
Difficulty: Novice | Version: 1
Capo : No Capo
Tranpose
D              C             G
e|-----2-----|  |-----0-----|  |-----3-----|
B|-----3-----|  |-----1-----|  |-----3-----|
G|-----3-----|  |-----0-----|  |-----4-----|
D|-----0-----|  |-----2-----|  |-----5-----|
A|-----0-----|  |-----3-----|  |-----5-----|
E|-----0-----|  |-----0-----|  |-----3-----|
   
       Em             Am
e|-----0-----|  |-----5-----|
B|-----0-----|  |-----5-----|
G|-----0-----|  |-----5-----|
D|-----2-----|  |-----7-----|
A|-----2-----|  |-----7-----|
E|-----0-----|  |-----5-----|


Intro: D C D C (3x)

 Em                  G
Bisa kau dengarkan aku
  G            Am
Coba pahami aku
     Am              C
Kita tak bisa bertahan
    C                
Kita tak bisa menahan

  Em            G
Kau pegang arahku
   G                Am
Coba tunjuk langkahku
Am                  C
Aku tak bisa bertahan
C
Aku tak bisa menahan

Reff:
 G                     D
Dan hilang semua impianku
  D                 Em
Hilang semua harapanku
Em                  D
Hilang bersama resahku
D
Hilang terbawah arah

G                       D
Perhatikan jejak langkahku
D                 Em
Bersama harga diriku
Em                   C
Serendah-rendah namamu
C
Serendah-rendah namamu


Int: Em G Am C


Intro : D C D C (3x)
     G D Em C


Reff

Outro : G D Em C G

Chord & Lirik lagu NOAH – Dan Hilang di atas adalah hak cipta / hak milik dari pengarang, artis, band dan label musik yg bersangkutan. Seluruh media termasuk lirik lagu ataupun kunci gitar / Chord Gitar yang terdapat di situs ini hanyalah untuk keperluan promosi dan evaluasi.

Video Not Available