Chord NOAH - Kau Udara Bagiku
Artis : NOAH
Difficulty: Novice | Version: 1
Capo : No Capo
Tranpose
[Intro]
E E7 4x
E A C#m B A C#m B

[Verse 1]
C#m      E          F#       A
Dari seluruhnya dan aku berlabuh
C#m          E
Karena dalam hatimu
  F#       A
Kutemukan itu
C#m A F# A
Huhuhu...

[Verse 2]
C#m         E           F#         A
Bertahanlah menangis tertawa denganku
C#m      A    F#
Hingga kita larut
B
Hingga berakhir hariku

[Bridge]
Em     C        Am
Ketika aku terlepas
B7           Em
Ketika kau rapuh
        C        A7
Ketika kita terjatuh
B7
aaa...

Em        C           Am
Lihat dan artikan semua
    B7             Em
Tak ada yang sempurna
          C           A7
Genggam tanganku percaya
B7     C
aah... aah... ooh...


[Chorus]
E         A         C#m
 Tetap di dalam hatiku
      A        E
 Kau udara bagiku
     A         C#m  A
 Memenuhi duniaku...

E        A       C#m
 Seburuk apapun itu
          A         E
 Kau tlah melengkapiku
        A         C#m
 Dan membalut lukaku...
 C
 Ooooh...

[Interlude]
A       B
 Ooooh...
       F#m
 Selamanya...
       B
 Selamanya...

F#m B 4x

[Bridge]
Em        C           Am
Lihat dan artikan semua
    B7             Em
Tak ada yang sempurna
          C           A7
Genggam tanganku percaya
B7     C
aah... aah... ooh...

[Chorus]
E         A         C#m
 Tetap di dalam hatiku
      A        E
 Kau udara bagiku
     A         C#m  A
 Memenuhi duniaku...

E        A       C#m
 Seburuk apapun itu
          A         E
 Kau tlah melengkapiku
        A         C#m  A
 Dan membalut lukaku...

E        A       C#m
 Seburuk apapun itu
          A         E
 Kau tlah melengkapiku
     A         C#m
 Memenuhi duniaku...

[Outro]
 C
 Aaaaah...
 D
 Aaaaah...
E A C#m B A C#m B E
  Huuuu...

----------------------------------------------------------------------

TABLATURE

Tempo = 120

L - tied note
b - bend

[INTRO]
e|----------------------------|----------------------------|
B|----------------------------|-----------10----9-----10---|
G|--9-----9--------------7L---|--7--9----------------------|
D|--------------9-----9-------|----------------------------|
A|----------------------------|----------------------------|
E|----------------------------|----------------------------|


e|--7-----7-------------------|----------------------------|
B|----------------------------|-----------7-----------7----|
G|--------------9-----9-------|-----9-----------9----------|
D|-----------------------7L---|--7-------------------------|
A|----------------------------|----------------------------|
E|----------------------------|----------------------------|


e|----------------------------|----------------------------|
B|--9-------------------------|-----------10----9-----10---|
G|--------9--------------7L---|--7--9----------------------|
D|--------------9-----9-------|----------------------------|
A|----------------------------|----------------------------|
E|----------------------------|----------------------------|


e|--7-----7-------------------|----------------------------||
B|----------------------------|-----------7-----------7----||
G|--------------9-----9-------|-----9-----------9----------||
D|-----------------------7L---|--7-------------------------||
A|----------------------------|----------------------------||
E|----------------------------|----------------------------||

[SOLO]
e|----------------------------|----------------------------|
B|--9-----------9b----9--7L---|--7L----7--4b----4--2--0----|
G|----------------------------|----------------------------|
D|----------------------------|----------------------------|
A|----------------------------|----------------------------|
E|----------------------------|----------------------------|


e|----------------------------|----------------------------||
B|--9-----------9b----9--7L---|--7--12---------------------||
G|----------------------------|----------------------------||
D|----------------------------|----------------------------||
A|----------------------------|----------------------------||
E|----------------------------|----------------------------||

Chord & Lirik lagu NOAH – Kau Udara Bagiku di atas adalah hak cipta / hak milik dari pengarang, artis, band dan label musik yg bersangkutan. Seluruh media termasuk lirik lagu ataupun kunci gitar / Chord Gitar yang terdapat di situs ini hanyalah untuk keperluan promosi dan evaluasi.

Video Not Available