Chord Radja - Jujur (Tab)
Artis : Radja
Difficulty: Novice | Version: 1
Capo : No Capo
Tranpose
Intro :
Organ to guitar
e|-------------------------9-10-9--------------|
B|--10-10-8-10--10-8-10--10------10-8----------|
G|---------------------------------------------|
D|---------------------------------------------|
A|---------------------------------------------|
E|---------------------------------------------|

e|-------------------------9-10-9--------------|
B|--10-10-8-10--10-8-10--10------10-8----------|
G|---------------------------------------------|
D|---------------------------------------------|
A|---------------------------------------------|
E|---------------------------------------------|

e|-------------------------9-10-9--------------|
B|--10-10-8-10--10-8-10--10------10-8----------|
G|---------------------------------------------|
D|---------------------------------------------|
A|---------------------------------------------|
E|---------------------------------------------|

e|---------------------------------------------|
B|--12-12-10-12--12-10-12--12-13-12-10---------|
G|---------------------------------------------|
D|---------------------------------------------|
A|---------------------------------------------|
E|---------------------------------------------|

Solo (Pake tremolo picking)

e|-------------------------------------------------------------------------|
B|-------------------------------------------------------------------------|
G|--77777--------------------------------9999------------------------------|
D|--------101010-99999-7777-5555-10101010----101010-999-999-1010-7777------|
A|-------------------------------------------------------------------------|
E|-------------------------------------------------------------------------|

e|-------------------------------------------------------------------------|
B|--/1212121212-777-99999-/121212-141414-121212-141414-121212-101010-------|
G|-------------------------------------------------------------------------|
D|-------------------------------------------------------------------------|
A|-------------------------------------------------------------------------|
E|-------------------------------------------------------------------------|

e|--1717171717---------------------------------|
B|---------------------------------------------|
G|---------------------------------------------|
D|---------------------------------------------|
A|---------------------------------------------|
E|---------------------------------------------|

Chord & Lirik lagu Radja – Jujur (Tab) di atas adalah hak cipta / hak milik dari pengarang, artis, band dan label musik yg bersangkutan. Seluruh media termasuk lirik lagu ataupun kunci gitar / Chord Gitar yang terdapat di situs ini hanyalah untuk keperluan promosi dan evaluasi.

Video Not Available