Chord Radja - Tulus (Tab)
Artis : Radja
Difficulty: Novice | Version: 1
Capo : No Capo
Tranpose
Intro :
Distortion
e|--------------------------------------------------------------------------------------------|
b|--------------------------------------------------------------------------------------------|
g|---------------------------------14\12-12-12/14-14------10\9-9-9/10-10------12\10-10-10/12--|    2X    
D|--10\9-9/10-10-10\9-9/10-10-7-7--14\12-12-12/14-14--3-3-10\9-9-9/10-10--5-5-12\10-10-10/12--|   
A|--10\9-9/10-10-10\9-9/10-10-7-7--12\10-10-10/12-12--3-3-8-\7-7-7/8--8---5-5-10\8--8--8-/10--|
E|--8-\7-7/-9-9--9-\7-7/10-9--5-5---------------------1-1-----------------3-3-----------------|


Verse1
 
e|--3----------------------5------5-----3-----5-----3-----3-----3-------|
b|--5----------------------5------6-----3-----6-----3-----3-----3-------|
g|--5----------------------5------7-----4-----7-----4-----4-----4-------|
D|--5----------------------7------7-----5-----7-----5-----5-----5-------|
A|--x----------------------x------x-----x-----x-----x-----x-----x-------|
E|--x----------------------x------x-----x-----x-----x-----x-----x-------|
    Kekasih aku tak mengerti....


Verse2
  (lakukan petikan seperti pada lagu asli)                                                Distortion on
e|--12----------------------8------10----7----10\8/10\8/10---7\5/7\5/7---3---5---7---10---3---5---7---10---|
b|--13----------------------10-----10----8----10\8/10\8/10---8\6/8\6/8---3---5---7---12---3---5---7---12---|
g|--12----------------------9------10----7----10\8/10\8/10---7\5/7\5/7---4---5---8---12---4---5---8---12---|
D|--------------------------7--------------------------------------------5---7---9---12---5---7---9---12---|
A|---------------------------------------------------------------------------------------------------------|
E|---------------------------------------------------------------------------------------------------------|
    jangan pernah dustai hati.....


Reff
 Distortion
e|-------------------------------------|
b|--------------------6-------8--------|
g|--5-----------------7---4---9---10---|
D|--5-------------7---7---5---9---10---|
A|--3-------------7---5---5---7---8----|
E|----------------5-------3------------|
    Tuluskah....

Ulangi Intro 1x, Verse2

Solo
 Distortion 
    //  //  //  //  //   //   //   //                          //  //  //  //  //  //  //  //
e|--15--13--12--8---15---13---12---8---15------------15--------15--13--12--8---15--13--12--8--20--|
b|------------------------------------------15--13------15--13------------------------------------|
g|------------------------------------------------------------------------------------------------|
D|------------------------------------------------------------------------------------------------|
A|------------------------------------------------------------------------------------------------|
E|------------------------------------------------------------------------------------------------|
   (// : tremolo picking)

Chord & Lirik lagu Radja – Tulus (Tab) di atas adalah hak cipta / hak milik dari pengarang, artis, band dan label musik yg bersangkutan. Seluruh media termasuk lirik lagu ataupun kunci gitar / Chord Gitar yang terdapat di situs ini hanyalah untuk keperluan promosi dan evaluasi.

Video Not Available