Chord Sheila On 7 - Mudah Saja (Tab)
Difficulty: Novice | Version: 1
Capo : No Capo
Tranpose
Tuning: Standard
 
 
Bb    (6 8 8 7 6 6)
Fmaj7 (5 8 7 5 5 5)
Am    (5 7 7 5 5 5)
C     (8 10 10 9 8 8)
F     (1 3 3 2 1 1)
Fmaj9 (0 3 2 0 1 1)
Dm    (10 12 12 10 10 10)
 
 
e|--------1--------1--------1--------0--------3--------1--------0---1--------|
B|--------1--------1--------1--------1--------3--------1--------1---1--------|
G|------2--------2--------2--------------------------------------------------|
D|----3------3-2------2-0------0---2--------3-----------------2--------------|
A|-------------------------------3------3------------0-----------------------|
E|----------------------------------------3------3-1------1-0----------------|
Tuhan..aku berjalan....menyusuri malam........Setelah patah hatiku 
 
(Repeat plucking)
e|--------1--------1--------1--------0--------3--------1--------0---1--------|
B|--------1--------1--------1--------1--------3--------1--------1---1--------|
G|------2--------2--------2--------------------------------------------------|
D|----3------3-2------2-0------0---2--------3-----------------2--------------|
A|-------------------------------3------3------------0-----------------------|
E|----------------------------------------3------3-1------1-0----------------|
Aku berdoa... semoga saja......ini terbaik untuknya
 
         Bb
Dia bilang
                       Fmaj7
Kau harus bisa seperti aku
Bb        Am         C
Yang sudah biarlah sudah
 
        F      Fmaj9
Mudah saja bagimu
        Dm
Mudah saja untukmu
      Bb                     C
Andai saja.. Cintamu seperti cintaku
 
 
e|--------1--------1--------1--------0--------3--------1--------0---1---0----|
B|--------1--------1--------1--------1--------3--------1--------1---1---1----|
G|------2--------2--------2--------------------------------------------------|
D|----3------3-2------2-0------0---2--------3-----------------2--------------|
A|-------------------------------3------3------------0-----------------------|
E|----------------------------------------3------3-1------1-0----------------|
Selang...waktu berjalan....kau kembali datang....tanyakan keadaanku
 
          Bb
Ku bilang
                          Am
Kau tak berhak tanyakan hidupku
Bb        Am           C
Membuatku semakin terluka
 
         F     Fmaj9
Mudah saja bagimu
        Dm
Mudah saja untukmu
  C  Bb                  C
Coba saja lukamu seperti lukaku
 
Bb         Fmaj7        Bb      C
Kau tak berhak tanyakan keadaanku
Bb         Fmaj7        Bb      C
Kau tak berhak tanyakan keadaanku
 
      F       Fmaj9
Mudah saja bagimu
       Dm
Mudah saja untukmu
 C   Bb                         C
Andai saja cintamu seperti cintaku
 
F    Fmaj9    Dm   Bb   C
                 Mudah saja...
 
e|--------1--------1----------1--------1--------1----------1---|
B|--------1--------1--------1----------1--------1--------1-----|
G|------2--------2--------2----------2--------2--------2-------|
D|----3------3-2------2-0----------3------3-2------2-0---------|
A|-------------------------------------------------------------|
E|-------------------------------------------------------------|
Ouuuuuu.............................Ouuuuuuuuu.................

Chord & Lirik lagu Sheila On 7 – Mudah Saja (Tab) di atas adalah hak cipta / hak milik dari pengarang, artis, band dan label musik yg bersangkutan. Seluruh media termasuk lirik lagu ataupun kunci gitar / Chord Gitar yang terdapat di situs ini hanyalah untuk keperluan promosi dan evaluasi.

Video Not Available