Chord Slank - Virus (Tab)
Artis : Slank
Difficulty: Novice | Version: 1
Capo : No Capo
Tranpose
[Intro]
e|-----------------------------------------------------|
B|----8/10--15\13---13--10\8--8------5/6\5/6/8-5\3-----|
G|-----------------------------------------------------|
D|-----------------------------------------------------|
A|-----------------------------------------------------|
E|-----------------------------------------------------|
 
e|------------------------------------------------------------|
B|----8/10--15\13--13--8--15\13---15/17---17/18-17---17\15----|
G|------------------------------------------------------------|
D|------------------------------------------------------------|
A|------------------------------------------------------------|
E|------------------------------------------------------------|
 
[Interlude]
e|----------------------------------|
B|----8/10---6\5--5---6--3/5--------|
G|----------------------------------|
D|----------------------------------|
A|----------------------------------|
E|----------------------------------|
 
e|----------------------------------------------------|
B|----8/10---15\13--13--8/10-8--5/6--5/6/8---8/10-----|
G|----------------------------------------------------|
D|----------------------------------------------------|
A|----------------------------------------------------|
E|----------------------------------------------------|
 
[Solo]
e|-------------------------------------------------|
B|-----1/3--5--5/6--8-10--12--13--15/17---13-------|
G|-------------------------------------------------|
D|-------------------------------------------------|
A|-------------------------------------------------|
E|-------------------------------------------------|
 
e|---------------------------------------------------|
B|-----20--18--20--18--18--17--17\15--15\13--13------|
G|---------------------------------------------------|
D|---------------------------------------------------|
A|---------------------------------------------------|
E|---------------------------------------------------|
 
e|-----------------------------------------------------|
B|-----20--18/20--18--18\17--17\15--13--15/17--13------|
G|-----------------------------------------------------|
D|-----------------------------------------------------|
A|-----------------------------------------------------|
E|-----------------------------------------------------|
 
e|-----15--13/15--13--13\12--12\10--10--8--10/12--8------|
B|-------------------------------------------------------|
G|-------------------------------------------------------|
D|-------------------------------------------------------|
A|-------------------------------------------------------|
E|-------------------------------------------------------|
 
e|-----15---13/15--15--15/16--15--16--16\15--15/19--19------|
B|----------------------------------------------------------|
G|----------------------------------------------------------|
D|----------------------------------------------------------|
A|----------------------------------------------------------|
E|----------------------------------------------------------|
 
 
************************************
 
| /  Slide up
| \  Slide down
 
************************************

Chord & Lirik lagu Slank – Virus (Tab) di atas adalah hak cipta / hak milik dari pengarang, artis, band dan label musik yg bersangkutan. Seluruh media termasuk lirik lagu ataupun kunci gitar / Chord Gitar yang terdapat di situs ini hanyalah untuk keperluan promosi dan evaluasi.

Video Not Available