Chord ST12 - Jangan Pernah Berubah (Tab)
Artis : ST12
Difficulty: Novice | Version: 1
Capo : No Capo
Tranpose
(Intro:)
 
 
    Dm                 Bb
e|---------------------------------------------|---|
B|---------------------------------------------|---|
G|----10-9-10-------------10/12-12~------------|---|  (2X)
D|--7---------7-------7-8----------------------|---|
A|---------------------------------------------|---|
E|---------------------------------------------|---|
 
 
Dm
Biarkan waktu...
 
 
 
(Solo:)
 
 
           Bb                Gm             A
e|-------------------------------------------------------------|
B|-------------------------------------------------------------|
G|----10-9-7--7--7------5-7p5-3-----3p2-----2h3-2-----6h7-6----|
D|--7-----------------------------------5-3--------------------|
A|-------------------------------------------------------------|
E|-------------------------------------------------------------|
 
 
                                      Bb
e|----------------------------------------------|
B|--11-10---10-8---8-6---6-5---8^^r-6-----------|
G|--X-------------------------------------------|
D|--X---------------------------------8~--------|
A|----------------------------------------------|
E|----------------------------------------------|
 
 
Bb         C
Kau meninggalkanku...

Chord & Lirik lagu ST12 – Jangan Pernah Berubah (Tab) di atas adalah hak cipta / hak milik dari pengarang, artis, band dan label musik yg bersangkutan. Seluruh media termasuk lirik lagu ataupun kunci gitar / Chord Gitar yang terdapat di situs ini hanyalah untuk keperluan promosi dan evaluasi.

Video Not Available