Chord Ungu - Andai Ku Tahu (Tab)
Artis : Ungu
Difficulty: Novice | Version: 1
Capo : No Capo
Tranpose
TUNING: STANDARD EADGBe
 
 
intro:
e|-----5-----5----------|-----5-----5------------|-----5-----5------------|-----5-----5------------|
B|-------5-----5--------|-------5-----5----------|-------5-----5----------|-------5-----5----------|
G|----------------------|------------------------|------------------------|------------------------|
D|---7-----7-----7------|---7-----7-----7--------|---7-----7-----7--------|---7-----7-----7--------|
A|-0--------------------|-0----------------------|-0----------------------|-0----------------------|
E|----------------------|------------------------|------------------------|------------------------|
  											
Verse 1:
e|------5-----5---------|------5-----5-----------|------7-----7-----------|------7-----7-----------|
B|--------5-----5-------|--------5-----5---------|--------7-----7---------|--------7-----7---------|
G|----------------------|------------------------|----------7-----7-------|----------7-----7-------|
D|----7-----7-----7-----|----7-----7-----7-------|------------------------|------------------------|
A|--0-------------------|--0---------------------|----9-------------------|----9-------------------|
E|----------------------|------------------------|--7---------------------|--7---------------------|
Andai ku tahu                            kapan tiba ajalku				   
 
e|------7-----7---------|------7-----7-----------|------5-----5-----------|------5-----5-----------|
B|--------7-----7-------|--------7-----7---------|--------5-----5---------|--------5-----5---------|
G|----------7-----7-----|----------7-----7-------|------------------------|------------------------|
D|----------------------|------------------------|----7-----7-----7-------|----7-----7-----7-------|
A|----9-----------------|----9-------------------|--0---------------------|--0---------------------|
E|--7-------------------|--7---------------------|------------------------|------------------------|
  Kuakan memohon                              Tuhan tolong panjangkan umurku	
 
e|------5-----5---------|------5-----5-----------|------7-----7-----------|------7-----7-----------|
B|--------5-----5-------|--------5-----5---------|--------7-----7---------|--------7-----7---------|
G|----------------------|------------------------|----------7-----7-------|----------7-----7-------|
D|----7-----7-----7-----|----7-----7-----7-------|------------------------|------------------------|
A|--0-------------------|--0---------------------|----9-------------------|----9-------------------|
E|----------------------|------------------------|--7---------------------|--7---------------------|
  Andai ku tahu                                    kapan tiba masaku		     
 
e|------7-----7---------|------7-----7-----------|------5-----5-----------|------5-----5-----------|
B|--------7-----7-------|--------7-----7---------|--------5-----5---------|--------5-----5---------|
G|----------7-----7-----|----------7-----7-------|------------------------|------------------------|
D|----------------------|------------------------|----7-----7-----7-------|----7-----7-----7-------|
A|----9-----------------|----9-------------------|--0---------------------|--0---------------------|
E|--7-------------------|--7---------------------|------------------------|------------------------|
  Kuakan memohon	                       Tuhan jangan Kau ambil nyawaku
 
e|------5-----5---------|------5-----5-----------|------7-----7-----------|------7-----7-----------|
B|--------5-----5-------|--------5-----5---------|--------7-----7---------|--------7-----7---------|
G|----------------------|------------------------|----------7-----7-------|----------7-----7-------|
D|----7-----7-----7-----|----7-----7-----7-------|------------------------|------------------------|
A|--0-------------------|--0---------------------|----9-------------------|----9-------------------|
E|----------------------|------------------------|--7---------------------|--7---------------------|
    Aku takut akan semua dosa-dosaku  
 
e|------7-----7---------|------7-----7-----------|------5-----5-----------|------5-----5-----------|
B|--------7-----7-------|--------7-----7---------|------------------------|--------5-----5---------|
G|----------7-----7-----|----------7-----7-------|------------------------|------------------------|
D|----------------------|------------------------|----7-----7-----7-------|----7-----7-----7-------|
A|----9-----------------|----9-------------------|--0---------------------|--0---------------------|
E|--7-------------------|--7---------------------|------------------------|------------------------|
    Aku takut dosa yang terus membayangiku		
 
 
solo:			
 
e|------------------------|-------------------------------|-------------------------------|
B|-10-10-9-9-7-7-9-9------|-12--12--10--10--9--9--10--10--|-12--12--10--10--9--9--10--10--|
G|---9--9-9-9-9-9-9-9-----|---11--11--11--11-11-11--11--11|---11--11--11--11-11-11--11--11|
D|------------------------|-------------------------------|-------------------------------|
A|------------------------|-------------------------------|-------------------------------|
E|------------------------|-------------------------------|-------------------------------|
 
e|------------------------|
B|-10-10-9-9-7-7-9-9------|
G|---9--9-9-9-9-9-9-9-----|
D|------------------------|
A|------------------------|
E|------------------------|
 
verse2:
A Bm E A
 
Chorus:
A Bm E A  (2x)
 
Bridge:
 
e|--------------------|-2-2-2-2-2-2-2-2----|-------------------|-------------------|
B|--------------------|-3-3-3-3-3-3-3-3----|-------------------|-2-2-2-2-2-2-2-2---|
G|--------------------|-4-4-4-4-4-4-4-4----|-1-1-1-11-1-1-1----|-2-2-2-2-2-2-2-2---|
D|-4-4-4-4-4-4-4-4----|-4-4-4-4-4-4-4-4----|-2-2-2-2-2-2-2-2---|-2-2-2-2-2-2-2-2---|
A|-4-4-4-4-4-4-4-4----|-2-2-2-2-2-2-2-2----|-2-2-2-2-2-2-2-2---|-------------------|
E|-2-2-2-2-2-2-2-2----|--------------------|-------------------|-------------------|
  Aku manusia...	                    yang takut neraka..
 
e|--------------------|-2-2-2-2-2-2-2-2----|-------------------|------------------|
B|--------------------|-3-3-3-3-3-3-3-3----|-------------------|------------------|
G|--------------------|-4-4-4-4-4-4-4-4----|-1-1-1-1-1-1-1-1---|-1-1-1-1-1-1-1-1--|
D|-4-4-4-4-4-4-4-4----|-4-4-4-4-4-4-4-4----|-2-2-2-2-2-2-2-2---|-2-2-2-2-2-2-2-2--|
A|-4-4-4-4-4-4-4-4----|-2-2-2-2-2-2-2-2----|-2-2-2-2-2-2-2-2---|-2-2-2-2-2-2-2-2--|
E|-2-2-2-2-2-2-2-2----|--------------------|-------------------|------------------|
  Namun aku juga...	                   tak pantas di surga....
 
verse1
chorus
outro(same like solo)

Chord & Lirik lagu Ungu – Andai Ku Tahu (Tab) di atas adalah hak cipta / hak milik dari pengarang, artis, band dan label musik yg bersangkutan. Seluruh media termasuk lirik lagu ataupun kunci gitar / Chord Gitar yang terdapat di situs ini hanyalah untuk keperluan promosi dan evaluasi.

Video Not Available