Chord Ungu - Cinta Dalam Hati (Tab)
Artis : Ungu
Difficulty: Novice | Version: 1
Capo : No Capo
Tranpose
Bagian 1
 e|--------------------------------------13----------------------------------------|
 B|-----------------------------10--10/15--13/15-----------------------------------|
 G|--------12--12/14-14p12-10-10--10-----------------------------------------------|
 D|------12--12--------------------------------------------------------------------|
 A|--------------------------------------------------------------------------------|
 E|--------------------------------------------------------------------------------| 
 
 Bagian 2
 e|-13-12p13-----------------------------------13/15-15-13-15/17-17-18-15p17p15-13-|
 B|---------14-14-13-13-11-11-13p11-10-11-11-13------------------------------------|
 G|--------------------------------------------------------------------------------|
 D|--------------------------------------------------------------------------------|
 A|--------------------------------------------------------------------------------|
 E|--------------------------------------------------------------------------------| 
 
 Bagian 3
 e|--------------------------------------------------------------------------------|
 B|--------------------------------------------------------------------------------|
 G|----------15--------------14-15p14-12-------------------------------------------|
 D|--12-11-12--12-12-12-11-12------------------------------------------------------|
 A|--------------------------------------------------------------------------------|
 E|--------------------------------------------------------------------------------|

Chord & Lirik lagu Ungu – Cinta Dalam Hati (Tab) di atas adalah hak cipta / hak milik dari pengarang, artis, band dan label musik yg bersangkutan. Seluruh media termasuk lirik lagu ataupun kunci gitar / Chord Gitar yang terdapat di situs ini hanyalah untuk keperluan promosi dan evaluasi.

Video Not Available