Chord Ungu - Dari Satu Hati (Tab)
Artis : Ungu
Difficulty: Novice | Version: 1
Capo : No Capo
Tranpose
guitar 1:
E|---------------------------|
B|---------------------------|
G|---------------------------|
D|---------------------------|
A|-11-11-9-9-7-9-7-6---------|
E|-9--9--7-7-5-7-5-4---------|
 
guitar 2:
 
E|---------------------------|
B|---------------------------|
G|---------------------------|
D|---------------------------|
A|11-11-13-13-14-15-14-13----|
E|9--9--11-11-12-13-12-11----|
 
E|---------------------------|
B|---------------------------|
G|---------------------------|
D|---------------------------|
A|-16-16-14-16-14-13---------|
E|-16-14-12-14-12-11---------|

Chord & Lirik lagu Ungu – Dari Satu Hati (Tab) di atas adalah hak cipta / hak milik dari pengarang, artis, band dan label musik yg bersangkutan. Seluruh media termasuk lirik lagu ataupun kunci gitar / Chord Gitar yang terdapat di situs ini hanyalah untuk keperluan promosi dan evaluasi.

Video Not Available