Chord Ungu - Tak Perlu (Tab)
Artis : Ungu
Difficulty: Novice | Version: 1
Capo : No Capo
Tranpose
E||-------|-------|-------|-------|--------------------------------|
B||-------|-------|-------|-------|--------------------------------|
G||-------|-------|-------|-------|--------------------------------|
D||-------|-------|-------|-------|----------------<>7-<>7-<>7-<>7-|
A||-------|-------|-------|-------|----------------<>5-<>5-<>5-<>5-|
E||-------|-------|-------|-------|--------------------------------|
 
 
 
--------------------------------|--------------------------------|
--------------------------------|--------------------------------|
--7--7--9-11--12----L-11--9--7--|--7--7--9-11--12----L-11--9--7--|
--------------------------------|--------------------------------|
--5--5--7--9--10----L--9--7--5--|--5--5--7--9--10----L--9--7--5--|
--------------------------------|--------------------------------|
 
 
--------------------------------|--------------------------------|----|----|
--------------------------------|--------------------------------|----|----|
--7--7--9-11--12----L-11--9--7--|--7--7--9-11--12----L-11--9--7--|----|----|
--------------------------------|--------------------------------|----|----|
--5--5--7--9--10----L--9--7--5--|--5--5--7--9--10----L--9--7--5--|----|----|
--------------------------------|--------------------------------|----|----|
 
 
----|----|--------------------------------------------------|
----|----|--------------------------------------------------|
----|----|--------------------------------------------------|
----|----|--7--7--7--7--7--7--7--7--------------------------|
----|----|--5--5--5--5--5--5--5--7--7--7--7--7--7--7--7--5--|
----|----|-----------------------5--5--5--5--5--5--5--5--5--|
 
 
 
--------------------------------------------------|
--------------------------------------------------|
--------------------------------------------------|
--------------------------------------------------|
--5--5--5--5--5--5--5--3--5--5--5--5--5--5--5--5--|
--3--3--3--3--3--3--3--3--3--3--3--3--3--3--3--3--|
 
 
 
--------------------------------------------------|
--------------------------------------------------|
--------------------------------------------------|
--7--7--7--7--7--7--7--7--------------------------|
--5--5--5--5--5--5--5--7--7--7--7--7--7--7--7--5--|
-----------------------5--5--5--5--5--5--5--5--5--|
 
 
 
--------------------------------------------------|
--------------------------------------------------|
--------------------------------------------------|
--------------------------------------------------|
--5--5--5--5--5--5--5--3--5--5--5--5--5--5--5--5--|
--3--3--3--3--3--3--3--3--3--3--3--3--3--3--3--3--|
 
 
 
--------------------------------|--------------------------------|
--------------------------------|--------------------------------|
--7--7--9-11--12----L-11--9--7--|--7--7--9-11--12----L-11--9--7--|
--------------------------------|--------------------------------|
--5--5--7--9--10----L--9--7--5--|--5--5--7--9--10----L--9--7--5--|
--------------------------------|--------------------------------|
 
 
 
--------------------------------|--------------------------------|----|----|
--------------------------------|--------------------------------|----|----|
--7--7--9-11--12----L-11--9--7--|--7--7--9-11--12----L-11--9--7--|----|----|
--------------------------------|--------------------------------|----|----|
--5--5--7--9--10----L--9--7--5--|--5--5--7--9--10----L--9--7--5--|----|----|
--------------------------------|--------------------------------|----|----|
 
 
 
----|----|------------------------------|------------------------------|
----|----|------------------------------|------------------------------|
----|----|--7--L------------------------|------------------------------|
----|----|--7--L--x-x-x-7--L--L-x-x-x-x-|--5--L--x-x-x-5--L--L-x-x-x-x-|
----|----|--5--L--x-x-x-7--L--L-x-x-x-x-|--5--L--x-x-x-5--L--L-x-x-x-x-|
----|----|--------x-x-x-5--L--L-x-x-x-x-|--3--L--x-x-x-3--L--L-x-x-x-x-|
 
 
 
------------------------------|-------------------------------|
------------------------------|-------------------------------|
--7--L------------------------|-------------------------------|
--7--L--x-x-x-7--L--L-x-x-x-x-|--5--L--x-x-x-5---5---5-5-5-5--|
--5--L--x-x-x-7--L--L-x-x-x-x-|--5--L--x-x-x-5---5---5-5-5-5--|
--------x-x-x-5--L--L-x-x-x-x-|--3--L--x-x-x-3---3---3-3-3-3--|
 
 
 
----------------------------------|----------------------------------|
----------------------------------|----------------------------------|
--7-7-7-7-7-7-7-6-6-6-6-6-6-6-6-6-|--7-7-7-7-7-7-7-4-4-4-4-4-4-4-4-4-|
----------------7-7-7-7-7-7-7-7-7-|--9-9-9-9-9-9-9-5-5-5-5-5-5-5-5-5-|
--5-5-5-5-5-5-5-------------------|----------------------------------|
----------------5-5-5-5-5-5-5-5-5-|--7-7-7-7-7-7-7-3-3-3-3-3-3-3-3-3-|
 
 
 
 
----------------------------------|----------------------------------|
----------------------------------|----------------------------------|
--7-7-7-7-7-7-7-6-6-6-6-6-6-6-6-6-|--7-7-7-7-7-7-7-4-4-4-4-4-4-4-4-4-|
----------------7-7-7-7-7-7-7-7-7-|--9-9-9-9-9-9-9-5-5-5-5-5-5-5-5-5-|
--5-5-5-5-5-5-5-------------------|----------------------------------|
----------------5-5-5-5-5-5-5-5-5-|--7-7-7-7-7-7-7-3-3-3-3-3-3-3-3-3-|
 
 
 
----------------------------------|----------------------------------|
----------------------------------|----------------------------------|
--7-7-7-7-7-7-7-6-6-6-6-6-6-6-6-6-|--7-7-7-7-7-7-7-4-4-4-4-4-4-4-4-4-|
----------------7-7-7-7-7-7-7-7-7-|--9-9-9-9-9-9-9-5-5-5-5-5-5-5-5-5-|
--5-5-5-5-5-5-5-------------------|----------------------------------|
----------------5-5-5-5-5-5-5-5-5-|--7-7-7-7-7-7-7-3-3-3-3-3-3-3-3-3-|
 
 
 
----------------------------------|----------------------------------|-----|
----------------------------------|----------------------------------|-----|
--7-7-7-7-7-7-7-6-6-6-6-6-6-6-6-6-|--7-7-7-7-7-7-7-4-4-4-4-4-4-4-4-4-|-----|
----------------7-7-7-7-7-7-7-7-7-|--9-9-9-9-9-9-9-5-5-5-5-5-5-5-5-5-|-----|
--5-5-5-5-5-5-5-------------------|----------------------------------|-----|
----------------5-5-5-5-5-5-5-5-5-|--7-7-7-7-7-7-7-3-3-3-3-3-3-3-3-3-|-----|
 
-----|-----|----------------------------------|--------------------------------|
-----|-----|----------------------------------|--------------------------------|
-----|-----|----------------------------6-6-6-|--7--7--9-11--12----L-11--9--7--|
-----|-----|--------------7-7-7-7-7-7-7-7-7-7-|--------------------------------|
-----|-----|--------7-7-7-7-7-7-7-7-7-7-7-7-7-|--------------------------------|
-----|-----|--5-5-5-5-5-5-5-5-5-5-5-5-5-5-5-5-|--------------------------------|
 
 
 
--------------------------------|--------------------------------|
--------------------------------|--------------------------------|
--7--7--9-11--12----L-11--9--7--|--7--7--9-11--12----L-11--9--7--|
--------------------------------|--------------------------------|
--------------------------------|--------------------------------|
--------------------------------|--------------------------------|
 
 
--------------------------------|--------------------------------|
--------------------------------|--------------------------------|
--7--7--9-11--12----L-11--9--7--|--------------------------------|
--------------------------------|--11-12-----L-12-11-----L----11-|
--------------------------------|--------------------------------|
--------------------------------|--------------------------------|
 
 
 
-----------------------------------|
-----------------------------------|
----------------14------14---------|
--12---12S--14------14------14-12--|
-----------------------------------|
-----------------------------------|
 
 
 
--------------12-12----14----14----12-12----14----|
--12-15-15-12-------12----12----12-------12----12-|
--------------------------------------------------|
--------------------------------------------------|
--------------------------------------------------|
--------------------------------------------------|
 
 
 
--12-12----14----12----14----12----14----12-14-14-|--------------------|
--------12----12----12----12----12----12----------|--15----------------|
--------------------------------------------------|--------------------|
--------------------------------------------------|--------------------|
--------------------------------------------------|--------------------|
--------------------------------------------------|--------------------|
 
 
-------------------|-----------|--------------------------------|
--L----------------|-----------|--------------------------------|
-------------------|-----------|--------------------------------|
-------------------|-----------|--5-----5-----5-----5-5-5-5-5-5-|
-------------------|-----------|--5-----5-----5-----5-5-5-5-5-5-|
-------------------|-----------|--3-----3-----3-----3-3-3-3-3-3-|
 
 
----------------------------------|----------------------------------|
----------------------------------|----------------------------------|
--7-7-7-7-7-7-7-6-6-6-6-6-6-6-6-6-|--7-7-7-7-7-7-7-4-4-4-4-4-4-4-4-4-|
----------------7-7-7-7-7-7-7-7-7-|--9-9-9-9-9-9-9-5-5-5-5-5-5-5-5-5-|
--5-5-5-5-5-5-5-------------------|----------------------------------|
----------------5-5-5-5-5-5-5-5-5-|--7-7-7-7-7-7-7-3-3-3-3-3-3-3-3-3-|
 
 
----------------------------------|----------------------------------|
----------------------------------|----------------------------------|
--7-7-7-7-7-7-7-6-6-6-6-6-6-6-6-6-|--4-4-4-4-4-4-4-4-4-4-4-4-4-4-4-4-|
----------------7-7-7-7-7-7-7-7-7-|--5-5-5-5-5-5-5-5-5-5-5-5-5-5-5-5-|
--5-5-5-5-5-5-5-------------------|----------------------------------|
----------------5-5-5-5-5-5-5-5-5-|--3-3-3-3-3-3-3-3-3-3-3-3-3-3-3-3-|
 
----------------------------------|----------------------------------|
----------------------------------|----------------------------------|
--7-7-7-7-7-7-7-6-6-6-6-6-6-6-6-6-|--7-7-7-7-7-7-7-4-4-4-4-4-4-4-4-4-|
----------------7-7-7-7-7-7-7-7-7-|--9-9-9-9-9-9-9-5-5-5-5-5-5-5-5-5-|
--5-5-5-5-5-5-5-------------------|----------------------------------|
----------------5-5-5-5-5-5-5-5-5-|--7-7-7-7-7-7-7-3-3-3-3-3-3-3-3-3-|
 
----------------------------------|----------------------------------|
----------------------------------|----------------------------------|
--7-7-7-7-7-7-7-6-6-6-6-6-6-6-6-6-|--7-7-7-7-7-7-7-4-4-4-4-4-4-4-4-4-|
----------------7-7-7-7-7-7-7-7-7-|--9-9-9-9-9-9-9-5-5-5-5-5-5-5-5-5-|
--5-5-5-5-5-5-5-------------------|----------------------------------|
----------------5-5-5-5-5-5-5-5-5-|--7-7-7-7-7-7-7-3-3-3-3-3-3-3-3-3-|
 
----------------------------------|----------------------------------|
----------------------------------|----------------------------------|
--7-7-7-7-7-7-7-6-6-6-6-6-6-6-6-6-|--7-7-7-7-7-7-7-4-4-4-4-4-4-4-4-4-|
----------------7-7-7-7-7-7-7-7-7-|--9-9-9-9-9-9-9-5-5-5-5-5-5-5-5-5-|
--5-5-5-5-5-5-5-------------------|----------------------------------|
----------------5-5-5-5-5-5-5-5-5-|--7-7-7-7-7-7-7-3-3-3-3-3-3-3-3-3-|
 
----------------------------------|----------------------------------|
----------------------------------|----------------------------------|
--7-7-7-7-7-7-7-6-6-6-6-6-6-6-6-6-|--4-4-4-4-4-4-4-4-4-4-4-4-4-4-4-4-|
----------------7-7-7-7-7-7-7-7-7-|--5-5-5-5-5-5-5-5-5-5-5-5-5-5-5-5-|
--5-5-5-5-5-5-5-------------------|----------------------------------|
----------------5-5-5-5-5-5-5-5-5-|--3-3-3-3-3-3-3-3-3-3-3-3-3-3-3-3-|
 
 
--------------------------------|--------------------------------|
--------------------------------|--------------------------------|
--7--7--9-11--12----L-11--9--7--|--7--7--9-11--12----L-11--9--7--|
--------------------------------|--------------------------------|
--5--5--7--9--10----L--9--7--5--|--5--5--7--9--10----L--9--7--5--|
--------------------------------|--------------------------------|
 
 
--------------------------------|--------------------------------|
--------------------------------|--------------------------------|
--7--7--9-11--12----L-11--9--7--|--7--7--9-11--12----L-11--9--7--|
--------------------------------|--------------------------------|
--5--5--7--9--10----L--9--7--5--|--5--5--7--9--10----L--9--7--5--|
--------------------------------|--------------------------------|
 
 
--------------------------------|--------------------------------|
--------------------------------|--------------------------------|
--7--7--9-11--12----L-11--9--7--|--7--7--9-11--12----L-11--9--7--|
--------------------------------|--------------------------------|
--5--5--7--9--10----L--9--7--5--|--5--5--7--9--10----L--9--7--5--|
--------------------------------|--------------------------------|
 
 
--------------------------------|--------------------------------|
--------------------------------|--------------------------------|
--7--7--9-11--12----L-11--9--7--|--7--7--9-11--12----L-11--9--7--|
--------------------------------|--------------------------------|
--5--5--7--9--10----L--9--7--5--|--5--5--7--9--10----L--9--7--5--|
--------------------------------|--------------------------------|
 
--------------------------------|-------------------|-------------------||
--------------------------------|--7----------------|--L----------------||
--7--7--9-11--12----L-11--9--7--|--7----------------|--L----------------||
--------------------------------|--7----------------|--L----------------||
--5--5--7--9--10----L--9--7--5--|--5----------------|--L----------------||
--------------------------------|-------------------|-------------------||

Chord & Lirik lagu Ungu – Tak Perlu (Tab) di atas adalah hak cipta / hak milik dari pengarang, artis, band dan label musik yg bersangkutan. Seluruh media termasuk lirik lagu ataupun kunci gitar / Chord Gitar yang terdapat di situs ini hanyalah untuk keperluan promosi dan evaluasi.

Video Not Available